Hide Commercials
Did you know? No 'did you know', Add an info for this song
כנסיית השכל - היינו עושים אהבה Chords
Ranking: 5.78 Sign Up and Rank!

כנסיית השכל - היינו עושים אהבה

Reset
size
       Em   Am      Em     Am
הייתה אחת   שידעה לעשות קסמים
 E          Am              Em  Am   
שידעה להגיד מילים   שצבעו את השמש בדם

פזמון:

                   C      
אני זוכר בלילות של ירח מלא
                F     
היית באה אלי  לא במקרה
                   C   
מסוממת  מטורפת בלי הכרה
                       F         
היינו נופלים לרצפה  נוזלים מהתקרה
 G            C 
היינו עושים אהבה

סולו:

   Am     Em            Am    Em Am 
e|---------------------------------|
B|---------------------------------|
G|-9--7-5-4h5p4h5p4----------------|
D|-------------------5-5h7--5------|
A|----------------------------7----|
E|---------------------------------|

             Em         Am       Em  
e|----------------------------------|
B|----------------------------------|
G|-9-9-9-7-5-4h5p4---------4-7------|
D|-------------------5-5h7------5---|
A|--------------------------------7-|
E|----------------------------------|

Em     Am      Em      Am
היה לנו טוב    היה לנו רע
 E              Am   Em     Am
היינו ביחד     לא השארנו ברירה

פזמון
If you like the way the song is edited, help us grow with your like please
More songs of כנסיית השכל:
Let Love In
More songs from the category רוק:
מוניקה סקס - מישהו אחר
אסף אמדורסקי - 15 דקות
דיויד ברוזה - בנהר של סביליה
נינט טייב - אם אני אלך
אתניקס - אם את יכולה