Hide Commercials
Did you know? No 'did you know', Add an info for this song
כוורת - היא כל כך יפה Chords
Ranking: 5.94 Sign Up and Rank!
Reset
size
     A       F#      B7      E
היא כל כך יפה  זה צובט בלב שלך
Abm  E    B7 F#m
אך  בכאב עצום   
     F#      A    Abm    C#m
היא לא מבינה  שאני רוצה אותה
B7 F#m7 C#m    Abm  F#m
לא אומרת לי כלום       

     A       F#      B7  E
בגינה תשב  עם הטבע להתערבב
Abm  E  B7  F#m
היא והשושנים   
   F#     A       Abm   C#m
שתי מילים אולי  הגדר מאחורי
C#m    Abm    F#m
אין לי אומץ מתאים

פזמון:

  F       G   D    C
כל השבוע   חלון פתוח
 B      G        D Am
כוכבים מעל ולב מתמוטט
   C#m        E    C#m     E 
הייתי נותן לה שק של סנטימנטים
C#    B     A    
אך אני מתבייש לתת

מעבר:
C# C#4 C# C#4 C# C#4 C# B

סולו:

e|--------------------9---14-------|
B|-5--8-p7-p5--7-/11---------14-12-|
G|---------------------------------|
D|---------------------------------|
A|---------------------------------|
E|---------------------------------|

e|--------------17--16--/17s0--16-14|
B|11--------17----------------------|
G|---14-/18-------------------------|
D|----------------------------------|
A|----------------------------------|
E|----------------------------------|

e|------------------------16-14------|
B|-17--14--/16s0--14------------17-16|
G|--------------------16-------------|
D|-----------------------------------|
A|-----------------------------------|
E|-----------------------------------|

e|------------------------------------|
B|-------------------------------14-17|
G|-16-15-h16p-15-13-----------14------|
D|------------------13-----14---------|
A|----------------------16------------|
E|------------------------------------|

                                   C#m 
e|--------------17--19--/21s0--19----4|
B|-/19s0-17-16--------------------19-5|
G|-----------------------------------6|
D|-----------------------------------6|
A|-----------------------------------4|
E|------------------------------------|

בס:

e|------------------------------|
B|------------------------------|
G|------------------------------|
D|-4-h6p-4----------------------|
A|----------6-h7p-6--4-h6p-4-2--|
E|------------------------------|

e|--------------------------|
B|-5--5-h7-8p-7-5--5-h7p-5--|
G|--------------------------|
D|--------------------------|
A|--------------------------|
E|--------------------------|

זה קורה רבות  גם במשפחות טובות
ילד אוהב אישה. אבל בסוף תרגיש
היא בסוף תרגיש  שאני עומד בכביש
ותפנה את ראשה שאני עומד בכביש
ותפנה את ראשה

פזמון

סולו

כבר שנה חלפה  את הבית היא עזבה
לאן - זאת לא אדע. אבל קשה יותר
וקשה יותר למלא את החסר
רק נותרה שושנה

פזמון

C#m              E
לה, לה, לה, לה, לה
C#m              E
לה, לה, לה, לה, לה
C# C#4 C#     B      A  
חיכיתי יותר מידי        
If you like the way the song is edited, help us grow with your like please
More songs of כוורת:
She looked me in the eye Morris and his Turtle
More songs from the category רוק:
טיפקס - התחנה הישנה
אביב גפן - האם להיות בך מאוהב
ארקדי דוכין - חדר משלי
הראל מויאל - באה אלי
כוורת - שיר המחירון