Hide Commercials
Did you know?
No 'did you know', Add an info for this song
יציאת חירום - כיוון הדמעות Chords
Ranking: 5.96 Sign Up and Rank!
פתיחה:

             F#m  Bm      F#m     Bm  
e|-----------------------------------|
B|-----------------------------------|
G|-----------------------------------|
D|----------------------2-4----------|
A|---4-5-5-4-4-----------------------|
E|-2---------------------------------|

              F#m        Bm       F#m    Bm
e|----------------------------------------|
B|----------------------------------------|
G|----------------------------------------|
D|----------------------------------------|
A|---4-5-5-4-4----4^5^4--2-2------2-------|
E|-2--------------------------------0-2---|

F#m          Bm         F#m
אתה שואף אל קירבך ערפל מתוק
F#m                  Bm     
כמו חלום בתוך חלום בתוך חלום
 Bm           F#m
שביר כי אין ברירה
     A             E
בין שתי עיניך הזויות
F#m     A             E
בין שתי עיניך רחוקות   

F#m   Bm        F#m 
ושוב שואף אל קירבך  
F#m               Bm  
שישכיח את עיניך מלראות
       Bm     F#m 
שהקירבה אינה קרובה
      A          E
כמו שקט שאינו תמיד
      A          E
כמו רגש שאינו אחיד

E         Bm
אני לא מתנגד
C#m              A   
והולך עם כיוון הדמעות
F#m A     E     Bm
זמן מתקשט בכאב    
E         Bm
אני לא מתנגד
C#m              A   
והולך עם כיוון הדמעות
A     E     Bm
זמן מתקשט בכאב

F#m          Bm          F#m
והוא הולך אליה, היא כה רחוקה
F#m                  Bm     
כמו חלום בתוך חלום בתוך חלום
 Bm           F#m 
שבירה כי אין ברירה
     A             E
בין שתי עיניה הזויות
Bm      A             E
בין שתי עיניה כה יפות  

אני לא מתנגד...
If you like the way the song is edited, help us grow with your like please
More songs of יציאת חירום:
More songs from the category לא הוגדר:
אייל גולן - תבואי היום
דפנה ארמוני ושלום חנוך - אלה
עומר אדם - בסוף הכל חולף
רוני דואני - סוד
ברי סחרוף ויזהר אשדות - ישראליאנה