Hide Commercials
Did you know?
No 'did you know', Add an info for this song
יוני בלוך - תפוזים Chords
Ranking: 5.82 Sign Up and Rank!

יוני בלוך - תפוזים

Category: לא הוגדר
C#m          G  
הווווו או וו הוו
  D         Am  
הווווו או וו הוו
C#m          G  
הווווו או וו הוו
D Adim        Am
הווווו או וו הוו

       C#m             G  
בכית כשדיברנו, אבל לא רצית
       D            Am  
לומר לי על מה, ולמה בכית
       C#m       G    
אמרת שבגלל שרע לך איתי
       D          Am     
ורע לך שאת עוד אוהבת אותי

פזמון:

      G            Dm    
אז הלכתי הצידה, וסחטתי לך
C#m    Am    C/B     C  
שלושים תפוזים שהיו במטבח
      D                   Am   
את חייכת כששאלת אם זה מיץ אמיתי
D/A D/B D/C    D       C       Am 
אולי את בכל זאת אוהבת אותי        

סולו:

         G                             Am       
e|----0----------------------------------------|
B|--0---------------------8-10-10^11--8---8----|
G|-------7^9-7^9--7---7-9---------------9---9-9|
D|7--------------------------------------------|
A|---------------------------------------------|
E|---------------------------------------------|

           D                   G               
e|--------------------------7-----------------|
B|-----12-11-10-10^11-8-10----10-10^11--8-8---|
G|--9-----------------------------------------|
D|--------------------------------------------|
A|--------------------------------------------|
E|--------------------------------------------|

    C#m               Am                            Adim  D
e|-10----10-----------------------------------------------|
B|-10^11-8----8-----8-------------------------------------|
G|----------9-----9-----9-7------7^9-7^9--7---------------|
D|--------------------------9-7-------------10--9-7-----7-|
A|---------------------------------------------------10---|
E|--------------------------------------------------------|

פזמון
If you like the way the song is edited, help us grow with your like please
More songs of יוני בלוך:
More songs from the category לא הוגדר:
מופע הארנבות של ד"ר קספר - יותר מדי
מופע הארנבות של ד"ר קספר - שלוש דקות
ענבל פרלמוטר - כמה שזה נורא
הרב רונן חזיזה - כל משבריך
הראל מויאל - כמו אוהבים