Hide Commercials
Did you know?
No 'did you know', Add an info for this song
טיפקס - איזה עולם Chords
Ranking: 5.96 Sign Up and Rank!
פתיחה ופזמון - בבס:

G|------------------------------------------|--|
D|--------------5---------------------------|--|
A|---2-5----3-6--------2-5-----3-6-5-3------|x2|
E|-3-----------------3-----------------6-4--|--|

G|-------------------------------------|
D|------------------------5--5-5-------|
A|---2-5---5-5-2------3-6--------6-3---|
E|-3-------------3---------------------|

G|-----------------------------------------------|
D|-----------------------------------------------|
A|---2-5--5-5-2----3-6-5-3---------------1--1--1-|
E|-3------------3----------6-4--1--1--1----------|

G|-----------------------------------------------|
D|-----------------------------------------------|
A|-6--6--6-------------------------------------3-|
E|----------4--4--4--1--1--1--3--3--3--3--3--3---|

בכינור:

e|------------------------------------|
B|-------------------------4----------|
G|-5-5-5-7--5-4---4--7-7-7----7-7-5-5-|
D|--------------6---------------------|
A|------------------------------------|
E|------------------------------------|

e|-------------------------------------|
B|-------------------------4-4-6---4---|
G|-5-5-5-7--5-4---4--7-7-7-------7---5-|
D|--------------6----------------------|
A|-------------------------------------|
E|-------------------------------------|

e|-3-3-3-4--3-3---------------3----------|
B|--------------6-6---5s6-6-6----6-6-4-4-|
G|---------------------------------------|
D|---------------------------------------|
A|---------------------------------------|
E|---------------------------------------|

e|-----------------------------------------|
B|-4-4-4-6-4-4-3-3--3-4-3-4---------3h4----|
G|--------------------------5-4---5-----5--|
D|-----------------------------------------|
A|-----------------------------------------|
E|-----------------------------------------|

המשך פתיחה ובמעבר (חלק מהצלילים לא מנוגנים ע"י גיטרה): x2

e|----------------------------------|
B|------------7-8-------------------|
G|----------------------------------|
D|----------------------------6-6-5-|
A|-3--5--6----------3--5--6---------|
E|----------------------------------|

e|-------------------------------------|
B|----------7s8-7h8p7------------------|
G|-------------------------------------|
D|-----------------------------6h8p6-5-|
A|-3--5--6-------------3--5--6---------|
E|-------------------------------------|

בבתים: x2

e|------------------------------------|
B|------------------------------------|
G|------------------------------------|
D|----------4--5----------------------|
A|-3--5--6---------3--5--6------------|
E|---------------------------4-4--4-3-|

e|----------------------------------|
B|----------------------------------|
G|----------------------------------|
D|-----------5-5-4------------------|
A|-3--5--6----------3--5--6---------|
E|---------------------------4s6-4-3|

מי אני?  מה אני בכלל למה לטפס על ההרים כי הם שם?
הנה אני  מחפש בכל פינה  שאל אותי נזיר מההימלאיה מי אתה?
סוג של טפיל אולי  כנימת עלים
סוג של תולעת משי  אבל נראה כמו ההורים
שלי  שאוהבים אותי  ועושים לי יומולדת כל שנה

פזמון:

          Cm                G       
איזה עולם איזה עולם  משעמם לי בן אדם
       Cm                  G      
אני נרדם אני נרדם  קולי נדם משועמם
           Cm                G       
(איזה עולם איזה עולם  משעמם לי בן אדם)
        Cm                  G      
(אני נרדם אני נרדם  קולי נדם משועמם)

מעבר:

e|-3-3-3-4--3-3---------------3----------|
B|--------------6-6---5s6-6-6----6-6-4-4-|
G|---------------------------------------|
D|---------------------------------------|
A|---------------------------------------|
E|---------------------------------------|

e|--------------------------------------------|
B|-4-4-4-6-4-4-3-3--3-4-3-4---------3-4-3-4---|
G|--------------------------5-4---5---------5-|
D|--------------------------------------------|
A|--------------------------------------------|
E|--------------------------------------------|

e|---------------------------|
B|------------7-8------------|
G|---------------------------|
D|---------------------------|
A|-3--5--6----------3--5--6--|
E|---------------------------|

e|---------------------------------------------|
B|-----------------7s8-7h8p7-------------------|
G|---------------------------------------------|
D|-6-6-5------------------------------6h8p6-5--|
A|--------3--5--6-------------3--5--6----------|
E|---------------------------------------------|

הי אתה  תעסיק את עצמך  אל תיתן לשעמום סיכוי לתפוס אותך
סע לחו"ל  קנה חתול  פלירט עם השכנה ממול
דיר באלאק לא לזמזם כשאתה במקלחת עומד מסתבן
תשתדל לעשות רק דבר אחד  במכה אחת ככה יעבור הזמן
הרבה      יותר     מהר

פזמון

מעבר:

e|-3-3-3-4--3-3---------------3----------|
B|--------------6-6---5s6-6-6----6-6-4-4-|
G|---------------------------------------|
D|---------------------------------------|
A|---------------------------------------|
E|---------------------------------------|

e|-----------------------------------------|
B|-4-4-4-6-4-4-3-3--3-4-3-4---------3h4----|
G|--------------------------5-4---5-----5--|
D|-----------------------------------------|
A|-----------------------------------------|
E|-----------------------------------------|

e|-3-3-3-4--3-3---------------3----------|
B|--------------6-6---5s6-6-6----6-6-4-4-|
G|---------------------------------------|
D|---------------------------------------|
A|---------------------------------------|
E|---------------------------------------|

e|--------------------------------------------|
B|-4-4-4-6-4-4-3-3--3-4-3-4---------3-4-3-4---|
G|--------------------------5-4---5---------5-|
D|--------------------------------------------|
A|--------------------------------------------|
E|--------------------------------------------|

פזמון

אותו מעבר
If you like the way the song is edited, help us grow with your like please
More songs of טיפקס:
סתם
More songs from the category רוק:
מאיר אריאל - אגדת עם מקסיקנית
אטרף - ענבל
אביב גפן וברי סחרוף - סוף העולם
כנסיית השכל - אושר
ירמי קפלן - כמה את צודקת