My Songs
My Songs
Hide Commercials
Did you know? No 'did you know', Add an info for this song
היהודים - הימים שלנו Chords
Ranking: 5.88 Sign Up and Rank!

היהודים - הימים שלנו

Author And Composer: תום פטרובר
Reset
size
פתיחה ובית ראשון:

גיטרה 1:

E||-7--7-5-3--2--0-2-3----|
B||-0--0-0-0--0--0-0-0----|
G||-----------------------|
D||-----------------------|
A||-----------------------|
E||-----------------------|

גיטרה 2:

e||---7--------7----------7-||
B||-8---7--5-8---7---5-8----||
G||-------------------------||
D||-------------------------||
A||-------------------------||
E||-------------------------||

  C            Em        
השנים שעברו לקחו לי ת'כוח
Am/F#            Am    
הנה אני כבר פוחדת לחשוב
  C            Em       
הימים שלנו אין בהם מרגוע
Am/F#        Am       
אולי אלוהים מנסה לעזוב
 G      C       
ויש שרואים את זה
Am/F#   Am      
ויש שנוטים לחשוב
       Em                 F  
שהכל סגור ואין דבר שכבר יעזור
 G     C  
תאמיני בזה
 B      F#m    
עד ששוקעים בחול

פזמון:

          Em    
ואם יש שם אל אחד
           C       
אז אני לא יודעת למה
         Am   
בלילות אני לבד
     D           
לא שלחת לי אף אחד
    Am/F#
שיבוא אלי
           Em     
כי אם יש שם אל אחד
           C       
אז אני לא יודעת כמה
           Am  
לילות אסבול לבד
     D           
לא שלחת לי אף אחד
  Am/F#
אף  אחד

סולו:

E|-----7-7-5------------7-7-5-----||
B|-5s8-------8-7--5-7-8-------8-7-||
G|--------------------------------||
D|--------------------------------||
A|--------------------------------||
e|--------------------------------||

השניםםם שעברו...

פזמון

סיום:
C Am/F# C Am/F# x2
If you like the way the song is edited, help us grow with your like please
More songs of היהודים:
They Want To Kill Me Don't Like Oh Lord What About You Learning Somebody Else Where Do You Go
More songs from the category רוק:
שלום חנוך - זה לא נוח
בית הבובות - ליד הגורל
דני ליטני - משבר אמון
הפיל הכחול - אדון יאוש
ארקדי דוכין - חדר משלי