Hide Commercials
Did you know?
No 'did you know', Add an info for this song
הבילויים - חיליק פורצלינה מסתכל על המצעד Chords
Ranking: 6.02 Sign Up and Rank!

הבילויים - חיליק פורצלינה מסתכל על המצעד

Category: קאנטרי
פתיחה ובמהלך השיר:

   E       A       F#       A        
e|-----5-4--------------------------|
B|---5-----7-5---5----5-7-8-7-5-----|
G|-4-----------6----------------6-4-|
D|----------------------------------|
A|----------------------------------|
E|----------------------------------|

   E       A       F#  
e|-----5-4------------|
B|---5-----7-5---5----|
G|-4-----------6------|
D|--------------------|
A|--------------------|
E|--------------------|

               A        
e|---------------------|
B|-7h8-7h8-7h8-7-5---5-|
G|-----------------6---|
D|---------------------|
A|---------------------|
E|---------------------|

  F#         A           E
בוא תראה את חיליק פורצלינה
A F# A  E        A   
מסתכל על המצעד       
  F#         A           E   
כן בוא תראה את חיליק פורצלינה
A7 A F# A  E        A   
מסתכל על המצעד          
A7   B7          F#           A7
הוא לא לבד,      הוא לא לבד     
 B7   A7
בכל הארץ
A F# A E A F# A  E              
מסתכלים על המצעד                

   F#      A       E
קודם התזמורת ואחר כך
A F# A   E      A   
מכונות הירייה       
   F#      A       E
קודם התזמורת ואחר כך
A7 A F# A   E      A   
מכונות הירייה          
A7    B7         F#      A7
מהקריה      אל העירייה     
 B7     A7
עושים שלום
G  A F# A E A F# A   E           
למכונות הירייה                   

F#               G 
בעיר דימונה יש ילדה
C    B7                  
עם שני ראשים ושש ידיים   
 F#               C 
בעיר רמאללה יש תינוק
C  B7                
שמת לפני שהוא נולד   
            F#              C 
אבל את חיליק מעניין יותר לראות
A Bb  B7      
את המצעד      
 E            
לראות את המצעד

מעבר:
E A F# A E A F# A x2

   E       A       F#       A        
e|-----5-4--------------------------|
B|---5-----7-5---5----5-7-8-7-5-----|
G|-4-----------6----------------6-4-|
D|----------------------------------|
A|----------------------------------|
E|----------------------------------|

   E       A       F#  
e|-----5-4------------|
B|---5-----7-5---5----|
G|-4-----------6------|
D|--------------------|
A|--------------------|
E|--------------------|

               A        
e|---------------------|
B|-7h8-7h8-7h8-7-5---5-|
G|-----------------6---|
D|---------------------|
A|---------------------|
E|---------------------|

   F#        A        E
ובסוף יש טנדר עם בלונים
A F# A  E         A   
שמוביל את הגופות      
   F#        A        E
ובסוף יש טנדר עם בלונים
A7 A F# A  E         A   
שמוביל את הגופות         
A7   B7        F#           A7
כל כך זקופות,   גופות יפות    
 E               B7      
האח הידד  לבלונים ולגופות

מעבר:
E A F# A E A F# A

  F#         A           E   
אז בוא תראה את חיליק פורצלינה
A F# A  E        A   
מסתכל על המצעד       
  F#         A           E
בוא תראה את חיליק פורצלינה
A F# A  E        A   
מסתכל על המצעד       
  F#         A           E
בוא תראה את חיליק פורצלינה
E D   C        A   
מסתכל על המצעד     
If you like the way the song is edited, help us grow with your like please
More songs of הבילויים:
More songs from the category קאנטרי:
הבילויים - חיליק פורצלינה מסתכל על המצעד
ג'יין בורדו - איך אפשר שלא
אהוד בנאי - על דרך יפו
Bob Dylan - Maggie's Farm
הדודאים - שיירת הרוכבים