Hide Commercials
Did you know? No 'did you know', Add an info for this song
ג'ירפות - גג Chords
Ranking: 6 Sign Up and Rank!

ג'ירפות - גג

Reset
size
פתיחה:

   Gm               F              
e|---5-6-10-6---6--13-6----11-6---|
B|-8--------------------8-------8-|
G|--------------------------------|
D|--------------------------------|
A|--------------------------------|
E|--------------------------------|

         Cm                Eb       
e|-6-11-------8----------------8---|
B|--------6-8------6-8-------8---8-|
G|----------------------8--8-------|
D|---------------------------------|
A|---------------------------------|
E|---------------------------------|

  Eb         Bb              D 
e|-10-8-6-8------6---6--------|
B|-------------6---6---6---6--|
G|-----------7-----------7----|
D|----------------------------|
A|----------------------------|
E|----------------------------|

  D                             
e|-8-----8-----8-----8-----8-8-|
B|---7-----7-----7-----7-------|
G|-----7-----7-----7-----7-----|
D|-----------------------------|
A|-----------------------------|
E|-----------------------------|

 Gm         F Eb    Cm
אל תעשו   תנועה טיפשית
Gm Dm  F             
היא עלולה להיבהל     
Cm          Gm 
מתנועה אחת חזקה
Gm F      Eb      
את יכולה להשתחרר  
  D            Cm   
עייפה מדי כדי להבחין

פזמון:

Gm           
והיא עולה לגג
 F         
באמונה שלמה
Eb   Cm           
שהיא עשתה טעות קשה

מעבר:
Bb D

פתיחה x2

 Eb     
עוד שניה
Gm      F      
הכל עומד להשתפר
D  F      
אני נשבע  
       Gm     
אל תזוזי מהגדר
F Eb Cm      
אני נשבע     
D Cm        Gm      
אל תזוזי מהגדר מהר  

פזמון x3
If you like the way the song is edited, help us grow with your like please
More songs of ג'ירפות:
747
More songs from the category רוק:
מאיר אריאל - עברנו את פרעה נעבור גם את זה
שלמה ארצי - שיר חייל
בית הבובות - אני בפנים
מוניקה סקס - 180
יהודית רביץ - סוף לסיפור