Hide Commercials
Did you know?
No 'did you know', Add an info for this song
Guns N' Roses - Sweet Child O' Mine Chords
Ranking: 6.06 Sign Up and Rank!

Guns N' Roses - Sweet Child O' Mine



Videos:




Intro:

e|-------------14----13---|--|
B|----14------------------|--|
G|-------13-11----13----13|--|
D|-11---------------------|x2|
A|------------------------|--|
E|------------------------|--|

e|------------14----13---|--|
B|---14------------------|--|
G|------13-11----13----13|--|
D|-13--------------------|x2|
A|-----------------------|--|
E|-----------------------|--|

e|-------------14----13---|--|
B|----14------------------|--|
G|-11----13-11----13----13|--|
D|------------------------|x2|
A|------------------------|--|
E|------------------------|--|

e|------------14----13---|--|
B|---14------------------|--|
G|------13-11----13----13|--|
D|-11--------------------|x2|
A|-----------------------|--|
E|-----------------------|--|

   C#                         
e|-------------14----13---|--|
B|----14------------------|--|
G|-------13-11----13----13|--|
D|-11---------------------|x2|
A|------------------------|--|
E|------------------------|--|

    B                        
e|------------14----13---|--|
B|---14------------------|--|
G|------13-11----13----13|--|
D|-13--------------------|x2|
A|-----------------------|--|
E|-----------------------|--|

   F#                         
e|-------------14----13---|--|
B|----14------------------|--|
G|-11----13-11----13----13|--|
D|------------------------|x2|
A|------------------------|--|
E|------------------------|--|

   C#                    
e|-11----------11----13-|
B|-------14-------------|
G|----13----13----13----|
D|----------------------|
A|----------------------|
E|----------------------|

   C#                       
e|----14----13----11-------|
B|----------------------14-|
G|-13----13----13----13----|
D|-------------------------|
A|-------------------------|
E|-------------------------|

C#                                  
She's got a smile and it seems to me
  B                             
Reminds me of childhood memories
     F#        
When everything
                              C# 
was as fresh as a bright blue sky
C#                               
Now and then when i see her face 
    B            
she takes me away
B                    
to that special place
         F#              
and if i steared too long
                            C# 
I'd probably break down and cry

Chorus:

e|-------------9----------|
B|----13------------13----|
G|-------11---------------|
D|-10-------13---13----13-|
A|------------------------|
E|------------------------|

e|------------11----9---|
B|----12----------------|
G|-11----11-9----11---11|
D|----------------------|
A|----------------------|
E|----------------------|

e||-------------14----13---|--|
B||----14------------------|--|
G||-------13-11----13----13|x2|
D||-11---------------------|--|
A||------------------------|--|
E||------------------------|--|

Ab     B                     C#  
whoa,  whoa - sweet child of mine
Ab       B                  C#  
oh, oh , oh - sweet love of mine

Solo:

     C#                  B             
e|------------------------------------|
B|-9-7-------9-7-------9-7------9-7---|
G|------10--------10--------8--------8|
D|------------------------------------|
A|------------------------------------|
E|------------------------------------|

    F#                         C#   
e|---------------------9-11-9------|
B|--9--7--11b9p7--9b11-------------|
G|-----------------------------8s10|
D|---------------------------------|
A|---------------------------------|
E|---------------------------------|

C#                                
She's got eyes of the bluest skies
   B                      
As if they thought of rain
  F#                         
i hate to look into hose eyes
    C#                  
and see an ounce of pain
    C#             
her hair reminds me
    C#              
of a warm safe place
      B                  
where as a child i'd hide
    F#                                
and pray for ther thunder and the rain
   C#                
to quietly pass me by

Chorus:

Ab     B                     C#  
whoa,  whoa - sweet child of mine
Ab       B                  C#  
oh, oh , oh - sweet love of mine

Solo1:

     C#                  B       
e|------------------------------|
B|-9-7-------9-7-------9-7------|
G|------10--------10--------8---|
D|------------------------------|
A|------------------------------|
E|------------------------------|

               F#                 C#
e|---------------------------------|
B|-9-7-------9-7----9-7--7p6-----7-|
G|------8---------------------6----|
D|---------------------------------|
A|---------------------------------|
E|---------------------------------|

                         
e|----9-----------------|
B|------7-6-----9-7-----|
G|-------------------10-|
D|----------------------|
A|----------------------|
E|----------------------|

                    B                  
e|-------------9--9s7--7--7s11---11-11|
B|-9-7---9s11-------------------------|
G|------------------------------------|
D|------------------------------------|
A|------------------------------------|
E|------------------------------------|

                 F#                    
e|-9--9-------------------------------|
B|--------12---12s11----------11p9----|
G|-------------------11------------11-|
D|----------------------11------------|
A|------------------------------------|
E|------------------------------------|

                         C#        
e|-----------------------------16-|
B|-----------14-16-14----16b18----|
G|--11s15-------------------------|
D|--------------------------------|
A|--------------------------------|
E|--------------------------------|

Ab     B                     C#  
whoa,  whoa - sweet child of mine
Ab       B                  C#  
oh, oh , oh - sweet love of mine
Ab     B                     C#  
whoa,  whoa - sweet child of mine
Ab       B                  C#  
oh, oh , oh - sweet love of mine

Solo2:

e|-18^----16--14--13---14p13------|
B|----------------------------16--|
G|--------------------------------|
D|--------------------------------|
A|--------------------------------|
E|--------------------------------|

e|-14--13--14p13---------13--|
B|---------------15---16-----|
G|---------------------------|
D|---------------------------|
A|---------------------------|
E|---------------------------|

e|------------------------------|
B|-16b14p11---------------------|
G|-----------15b13p11--10h11----|
D|---------------------------13-|
A|------------------------------|
E|------------------------------|

e|--------------------------------|
B|--------------12-11------12b13--|
G|----10-11-13--------13----------|
D|-13-----------------------------|
A|--------------------------------|
E|--------------------------------|

e|----------------------16--14---|
B|-12--11--11h12-11--------------|
G|------------------13-----------|
D|-------------------------------|
A|-------------------------------|
E|-------------------------------|

e|---------------------------------|
B|---------------------------------|
G|-10h11p10---------10h11p10-------|
D|----------13-13~-----------13-13~|
A|---------------------------------|
E|---------------------------------|

e|-----------------------------------|
B|-----------------------------------|
G|---------10----10h11p10------------|
D|-13-12------------------13---------|
A|---------------------------14---13-|
E|-----------------------------------|

e|----------------------------------|
B|----------------------------------|
G|-----------------10h11p10--10-----|
D|-------13--13~----------------13--|
A|----14----------------------------|
E|----------------------------------|

e|--------------|
B|--------------|
G|----------10~-|
D|---13-12------|
A|--------------|
E|--------------|

Ebm              F#                  
where do we go? where do we go now?  
Ab              B  C#  F#
where do we go?    ooh,  
Ebm             
where do we go? 
     F#                     
ooh, where do we go now? ooh
Ab                  B  C#  F#
where do we go now?    ooh   
Ebm              F#           
where do we go?    sweet child
Ab                 B  C#  F#
where do we go now?         
Ebm             F#            
ay, ay, ay, ay, ay, ay, ay, ay
Ab                 
where do we go now?
If you like the way the song is edited, help us grow with your like please


More songs of Guns N' Roses:
Patience Knocking On Heaven's Door November Rain Don't Cry
More songs from the category Rock:
Incubus - Drive
Arctic Monkeys - I Wanna Be Yours
Adele - Rumour Has It
U2 - Sunday Bloody Sunday
Red Hot Chili Peppers - Right On Time