Hide Commercials
Did you know?
No 'did you know', Add an info for this song
Janis Joplin - Piece Of My Heart Chords
Ranking: 6 Sign Up and Rank!

Janis Joplin - Piece Of My Heart



Intro:

   F#m                    A        B        C#m 
e|---------------------------------------------|
B|-----------------------------5---------------|
G|-4b6-------2h4-2-----------6---6-8-8---------|
D|-------7p4-------4-2-4-4s7-------9-9--9-9s11-|
A|---------------------------------------------|
E|---------------------------------------------|

         B             D                    
e|-9-9---------11-----------------14-14s17-|
B|-9-9-----7-7----7---------10-10----------|
G|-------8---------------11----------------|
D|-----9--------------12-------------------|
A|-----------------------------------------|
E|-----------------------------------------|

   B7                                         
e|----11s9---9---7---5-------2---4---5------7|
B|-------------------------------------------|
G|-11------9---8---6----4--2---4---6---8--9--|
D|-------------------------------------------|
A|-------------------------------------------|
E|-------------------------------------------|

   B7                      
e|------12----11---9---7\-|
B|------------------------|
G|-9s11----11----9---8----|
D|------------------------|
A|------------------------|
E|------------------------|

    B7                                 
Oh, come on, come on, come on, come on!

E                 A     B
Didn't I make you feel   
     A             E     A   B  A    
Like you  were the only  man    yeah!
    E                        A         
An' didn't I give you nearly everything
             B            
That a woman possibly can?
B                      C#m
Honey, you know I did!    
    C#m                            B
And each time I tell myself that I, 
B                           
Well I think I've had enough
        D                      
But I'm   gonna show you, baby,
       B                 
That a woman can be tough
              B                
I want you to come on, come on,
B                    E       
Come on, come on and take it!

      A                         B         
Take another little piece of my heart now,
B          A    E       
Baby!  oh, oh, break it!
       A                       B    
Break another little bit of my heart
     B                        
Now, darling, yeah, yeah, yeah
        E      
Oh, oh, have a!
      A                         B    
Have another little piece of my heart
          B Bb A
Now, baby       
A                  
You know you got it
      A              E               E   
If it makes you feel good  oh, yes indeed

Bridge:
E A B A

       E            A             B   
You're out on the streets looking good
         A                 E    
And baby deep down in your heart
E                              A     B
I guess you know that it ain't right  
                  A               
Never, never, never, never, never,
      E               A       B    
Never hear me when I cry   at night
B                            C#m
Babe and I cry all the time!    
C#m                                  B
But each time I tell myself that I,   
B                          
Well I can't stand the pain
             D                    
But when you hold me in your arms,
     B                 
I'll sing it once again
         B                
I'll say come on, come on,
                     E       
Come on, come on and take it!

      A                         B         
Take another little piece of my heart now,
B          A    E       
Baby!  oh, oh, break it!
       A                       B    
Break another little bit of my heart
     B            
Now, darling, yeah
        E      
Oh, oh, have a!
      A                         B    
Have another little piece of my heart
          B Bb A
Now, baby       
A                  
You know you got it
             A              E   
Child, if it makes you feel good

Solo:

   F#m           A               B          F#m 
e|--------2-0h2--7s9-9-5---5---7s9-8-7-5-------|
B|--------2--------------7-5-7-----------7-5h7-|
G|-4b6-----------------------------------------|
D|---------------------------------------------|
A|---------------------------------------------|
E|---------------------------------------------|

                  A                    B        
e|-17b19-b19-b17----------19b--19~-19-17----17-|
B|---------------19-17-19----------------19----|
G|---------------------------------------------|
D|---------------------------------------------|
A|---------------------------------------------|
E|---------------------------------------------|

                  F#m             
e|-------------------------------|
B|19-17--------14--------14------|
G|------18-16-----16-16b----16b--|
D|-------------------------------|
A|-------------------------------|
E|-------------------------------|

  A          B        F#m 
e|--------------14-17s19-|
B|-14-----14-14----17s19-|
G|----16b----------------|
D|-----------------------|
A|-----------------------|
E|-----------------------|

e|------------|
B|------------|
G|------------|
D|----...-----|
A|------------|
E|------------|

              B                         
I need you to come on, come on, come on,
            E       
Come on and take it!

      A                         B        
Take another little piece of my heart now
           A    E       
Baby!  oh, oh, break it!
       A                       B    
Break another little bit of my heart
                       A   E     
Now darling, yeah  oh, oh, have a
      A                         B         
Have another little piece of my heart now,
     B Bb A               A               
Baby         you know you got it   whoah!!

E       
Take it!
      A                         B        
Take another little piece of my heart now
           A    E       
Baby!  oh, oh, break it!
       A                       B    
Break another little bit of my heart
                                 A   E     
Now darling, yeah yeah yeah  oh, oh, have a
      A                         B         
Have another little piece of my heart now,
     B Bb A               A     
Baby         you know you got it
A                  
You know you got it
             A              E   
Child, if it makes you feel good

Ending:

   F#m                  A        B     F#m 
e|--------2-0-2---------------5-5-5--5----|
B|--------2---2---------------5-5-5--5-7~-|
G|-4b6----------4-2---4-2-s6--------------|
D|------------------4---------------------|
A|----------------------------------------|
E|----------------------------------------|
If you like the way the song is edited, help us grow with your like please


More songs of Janis Joplin:
More songs from the category Rock:
David Bowie - Ashes To Ashes
Dire Straits - So Far Away From Me
Bob Dylan - Like A rolling stone
U2 - Sunday Bloody Sunday
Oakey Philip and Moroder Giorgio - Together In Electric Dreams