Hide Commercials
Did you know?
No 'did you know', Add an info for this song
Queen - Under Pressure Chords
Ranking: 6.06 Sign Up and Rank!

Queen - Under Pressure



Category: Rock | Familiar Songs
F*: 133200

Intro:

e|-------------------|--|
B|-------------------|--|
G|-------------------|--|
D|-0--0--0--0-0-0----|--|
A|-----------------0-|x2|
E|-------------------|--|

e|-3--5----------------------------------|--|
B|----3----------------------------------|--|
G|---------------------------------------|--|
D|----0--0--0--0-0-0-----0--0--0--0-0-0--|x3|
A|-------------------0------------------0|--|
E|---------------------------------------|--|

e|-------------------------------------|
B|-------------------------------------|
G|-------------------------------------|
D|-0--0--0--0-0-0-----0--0--0--0-0-0---|
A|----------------0------------------0-|
E|-------------------------------------|

e|-3--5----------------------------------|
B|----3----------------------------------|
G|---------------------------------------|
D|----0--0--0--0-0-0-----0--0--0--0-0-0--|
A|-------------------0------------------0|
E|---------------------------------------|

e|--------------------------------------3--5|
B|-----------------------------------------3|
G|------------------------------------------|
D|-0--0--0--0-0-0-----0--0--0--0-0-0--------|
A|----------------0------------------0------|
E|------------------------------------------|

 D                  A         
Pressure    pushing down on me
         G                       A  
Pressing down on you, no man ask for
       D                      D/C#         
Under pressure   that burns a building down
         G            
Splits a family in two
     A                  D
Puts people on streets   
D              D/C#        
Mmm ba ba be   mmm ba ba be
   Bm               A             
Uu da da   uu da da    that's okay

         G                
It's the terror of knowing
          G/A           
What this world is about
G                         
Watching some good friends
  G/A                   
Screaming, "Let me out!"
  G                G/A   
Tomorrow   gets me higher
         F#m                G    A    
Pressure on people   people on streets
D         D
Da Da Da   

D               A               
Chippin' around,  kick my brains
            G   
'round the floor
G                  A
These are the days  
A                     D    
It never rains but it pours
             D D/C#              Bm
Mmm ba ba be        mmm ba ba ba   
Bm          A    
Mmm ba ba   ba ba
D                          D/C#    
People on streets    di da di da de
Bm                       A                  
People on streets  di da di da  di da  di da

         G                
It's the terror of knowing
          G/A           
What this world is about
G                         
Watching some good friends
  G/A                    G
Screaming, "Let me out!"  
  G        G/A                   
Tomorrow   gets me higher, higher
         F#m                G    A    
Pressure on people   people on streets

        G                         C       G
Turned away  from it all  like a blind man 
G                      C         
Sat on a fence  but it don't work
     G                  
Keep coming up with love
             C              
But it's so slashed and torn
     A         F   F*  F  F*   
Whhhhhy,  why,   whhhhhhhhhhhy?
Am         
Love (love)

  A                                          
Insanity laughs under pressure we're cracking
G        D                         G      A
Can't we give ourselves   one more chance? 
    G        D        
Why can't we give love
              G       A
That one more chance?  
    G        D                   
Why can't we give love, give love
G          A         G D        
Give love, give love,  give love
D          D/C#                 
Give love, give love, give love?

       Bm             A             D   
'Cause love's such an old-fashioned word
D        D/C#         Bm      
And love dares you to care for
    A             D           D/C# 
The people on the edge of the night
         Bm           A                
And love dares you to change our way of
G      G/A            
Caring about ourselves
G                     
This is our last dance
G                     
This is our last dance
F#m        G      A         D      
This is ourselves    under pressure
       D       G A   D       G A
Under pressure      pressure    
If you like the way the song is edited, help us grow with your like please


More songs of Queen:
Don't Stop Me Now The Show Must Go On Bohemian Rhapsody We Are The Champions I want It All Love Of My Life A Kind Of Magic The Prophet's Song
More songs from the category Rock:
Leonard Cohen - I'm Your Man
Nirvana - Where Did You Sleep Last Night
Geva Alon - Come Race Me
Gotye - Somebody That I Used To Know
The Beatles - Cry Baby Cry