Hide Commercials
Did you know?
No 'did you know', Add an info for this song
Johnny Cash - Doin' My Time Chords
Ranking: 6.04 Sign Up and Rank!

Johnny Cash - Doin' My Time



Category: Guitar solo | Country
                 F#  
On this old rock pile
                 F#  
With a ball and chain
                  F#    
They call me by a number
      F#             
Not a name Lord, Lord
B                                F#  
Gotta do my time,  I gotta do my time
               C#7                   F#  
With an achin' heart  on that gal of mine

                                        F# 
You can hear my hammer, you can hear my saw
      F#                      
Gonna swing it like John Henry
                   F#  
All day long Lord, Lord
B                               F#  
Gotta do my time, I gotta do my time
               C#7                    F#  
With an achin' heart   on that gal of mine

Bridge:

   F#                             B           
e|-------------------------------------------|
B|-------------------------------------------|
G|-------------------------------------------|
D|--------------------------------1--1-1----4|
A|-1---1-1----4----1---1-1----4-----------2--|
E|----------2---------------2----------------|

   B                F#            
e|-------------------------------|
B|-------------------------------|
G|-------------------------------|
D|----1-1-----4------------------|
A|-2--------2----2--1--1-1-----4-|
E|--------------------------2----|

F#            C#7                         
e|---------------------------------------|
B|---------------------------------------|
G|---------------------------------------|
D|---------------------------------------|
A|-1--1-1----4---------------------------|
E|---------2----4--4-4--4-4--5--5-5--5-5-|

   C#7               F#  
e|----------------------|
B|----------------------|
G|----------------------|
D|----------------------|
A|----------------------|
E|-6--6-6--6-6--5--4--2-|

              F#                     F#
When that old judge   looked down at me
          F#                         
Said I'll put you in the penitentiary
            B               
Lord Lord   gotta do my time
            F#  
Gotta do my time
               C#7                  F#  
With an aching heart on that gal of mine

Repeat same Bridge:
F# B F# C#7 F#

                     F#  
Well now it won't be long
                F#  
Just a few more days
                      F#  
They'll let me out of here
           F#            
I'm gonna stay Lord, Lord
B                    
With that gal of mine
                 F#  
With that gal of mine
                 C#7
She's waited for me 
                   F#  
While I've done my time
If you like the way the song is edited, help us grow with your like please


More songs of Johnny Cash:
One Piece At A Time Ain't No Grave Hurt Ring Of Fire Ghost Riders in the Sky
More songs from the category Guitar solo:
No Doubt - Don't Speak
Madonna - Don't Tell Me
Extreme - More Than Words
The Beatles - Something
Shocking Blue - Venus