Hide Commercials
Did you know?
No 'did you know', Add an info for this song
Bryan Adams - Summer of '69 Chords
Ranking: 5.86 Sign Up and Rank!

Bryan Adams - Summer of '69



Category: Rock | Familiar Songs
Intro:

   D                                         
e|------------------------------------------|
B|-7-----7---------------------7-----7------|
G|-7-----7---------------------7-----7------|
D|-7-----7---------------------7-----7------|
A|---5-5---5-5-5-5-5-5-5-5-5-5---5-5---5-5-5|
E|------------------------------------------|

D                              A
I got my first real six-string  
A                              D
Bought it at the five-and-dime  
 D                             A
Played it till my fingers bled  
A                     D
Was the summer of '69  

D                            A
Me and some guys from school  
A                                 D
Had a band and we tried real hard  
D                            A
Jimmy quit, Jody got married  
A                                Bm
Shoulda known, we'd never get far  

Bm        A             D
Oh when I look back now  
D                     G            Bm
That summer seemed to last forever   
Bm       A              D
And if I had the choice  
D                G          A     Bm
Yeah, I'd always want to be there   
Bm             A               D   
Those were the best days of my life

Bridge:

   D                                
e|-0-----2-----3-----2-----0---2---|
B|---3-----3-----3-----3-----3---3-|
G|-----2-----2-----2-----2---------|
D|---------------------------------|
A|---------------------------------|
E|---------------------------------|

   A                               Dadd9 D 
e|----------------------------------------|
B|-0-----2-----3-----2-----0---2----------|
G|---2-----2-----2-----2-----2---2--------|
D|-----2-----2-----2-----2----------------|
A|----------------------------------------|
E|----------------------------------------|

D                           Aadd9
Ain't no use in complainin'      
A                        Dadd9
When you got a job to do      
      D                               Aadd9 A
Spent my evenings down at the drive-in       
A                                Bm
And that's when I met you  yeah!   

 Bm              A             D
Standin' on your mama's porch   
                       G            Bm
You told me that you'd wait forever   
Bm              A            D
Oh and when you held my hand  
D                  G            Bm
I knew that it was now or never   
               A               D   
Those were the best days of my life
   A                            D   A    F
Oh yeah  back in the summer of '69  ohhh  

F           Bb          
Man we were killin' time
        C                  
We were young  and restless
   Dm           Bb   F
We needed to unwind   
        Bb                  C    
I guess nothin' can last forever,
   C        D
Forever, no  

Bridge: x2

   D                                
e|-0-----2-----3-----2-----0---2---|
B|---3-----3-----3-----3-----3---3-|
G|-----2-----2-----2-----2---------|
D|---------------------------------|
A|---------------------------------|
E|---------------------------------|

   A                                
e|---------------------------------|
B|-0-----2-----3-----2-----0---2---|
G|---2-----2-----2-----2-----2---2-|
D|-----2-----2-----2-----2---------|
A|---------------------------------|
E|---------------------------------|

D                              A
And now the times are changin'  
A                                       D
Look at everything that's come and gone  
    D                                     A
Sometimes when I play that old six-string  
A                                      Bm
Think about you wonder what went wrong   

 Bm              A             D
Standin' on your mama's porch   
D                    G            Bm
You told me  that it last forever   
                 A             D
Oh  and when you held my hand   
D                  G            Bm
I knew that it was now or never   
               A               D   
Those were the best days of my life
   A                            D 
Oh yeah  back in the summer of '69
   A                          D       A   
Un-huh  it was the summer of '69,  oh yeah
                   D    A      D
Me and my baby in '69, ohhhhhh  
           A                   
It was the summer,  the summer,
               D 
The summer of '69

If you like the way the song is edited, help us grow with your like please


More songs of Bryan Adams:
Everything I Do I Do It For You The Only Thing That Looks Good On Me Is You Heaven
More songs from the category Rock:
The Animals - House Of The Rising Sun
Rolling Stones - She's A Rainbow
The Beatles - Ticket To Ride
OneRepublic - I Lived
Gregory Alan Isakov - The moon was red and dangerous