Hide Commercials
Did you know?
No 'did you know', Add an info for this song
The Beatles - Here Comes The Sun Chords
Ranking: 5.96 Sign Up and Rank!

The Beatles - Here Comes The Sun

Author And Composer: George Harrison
Recommended to play with a capo in the seventh fret.

Intro:

   A                      D             E7         
e|-9----7-9------9-7-------------7---------------7|
B|10-10------10-------10--7--10-----10--9-7-9-10--|
G|-9----------------------------------------------|
D|-7----------------------------------------------|
A|------------------------------------------------|
E|------------------------------------------------|

   A                        D          E7  
e|---9----7-9------9-7---------9-7--------|
B|-----10------10-------10--7------10--9--|
G|----------------------------------------|
D|-7--------------------------------------|
A|----------------------------------------|
E|----------------------------------------|

A                               D
Here comes the sun, do do do do  
               B7             A
Here comes the sun, and I say  
A             
It's all right

Bridge:

     D       A       E      A       E        A
e|---------7------7-------7------7-----------|
B|------10-----10------10-----10---10p9-7----|
G|-9s11------9-------7------9--------------9-|
D|-------------------------------------------|
A|-------------------------------------------|
E|-------------------------------------------|

A             
Little darling
            D                E       A
It's been a long cold lonely winter   
A             
Little darling
              D                     E      A
It feels like years since it's been here    

A                               D
Here comes the sun, do do do do  
               B7              A
Here comes the sun, and I say   
A             
It's all right

Bridge:

     D       A       E      A       E        A
e|---------7------7-------7------7-----------|
B|------10-----10------10-----10---10p9-7----|
G|-9s11------9-------7------9--------------9-|
D|-------------------------------------------|
A|-------------------------------------------|
E|-------------------------------------------|

   A           E7         A
e|-9----7-9-------------7-|
B|---10--------9-7-9-10---|
G|------------------------|
D|------------------------|
A|------------------------|
E|------------------------|

A             
Little darling
             D              E      A
The smiles returning to the faces   
A             
Little darling
              D                     E     A
It seems like years since it's been here   
A                    D
Here comes the sun,   
               B7              A
Here comes the sun, and I say   
A             
It's all right

Bridge:

     D       A       E      A       E        A
e|---------7------7-------7------7-----------|
B|------10-----10------10-----10---10p9-7----|
G|-9s11------9-------7------9--------------9-|
D|-------------------------------------------|
A|-------------------------------------------|
E|-------------------------------------------|

   A           E7     
e|-9----7-9----------|
B|---10--------9---9-|
G|-------------------|
D|-------------------|
A|-------------------|
E|-------------------|

Bridge and In the next part:

           C      G        D/F#   D   A   E
e|----------------------------------------|
B|---------------8------------------------|
G|-------------9--------7------7----------|
D|--------9-10--------9------9--------7---|
A|-----11----------10------9--------9-----|
E|--12---------------------------10-------|

C    G    D/F#   D       A     E
Sun, sun, sun,   here it comes  
C    G    D/F#   D       A     E
Sun, sun, sun,   here it comes  
C    G    D/F#   D       A     E
Sun, sun, sun,   here it comes  
C    G    D/F#   D       A     E
Sun, sun, sun,   here it comes  
C    G    D/F#   D       A     E
Sun, sun, sun,   here it comes  

A             
Little darling
            D             E        A
I feel that ice is slowly melting   
A             
Little darling
              D                      E     A
It seems like years since it's been clear   

               A                D
Here comes the sun, do do do do  
               B7              A
Here comes the sun, and I say   
A             
It's all right

Bridge:

     D       A       E      A       E        A
e|---------7------7-------7------7-----------|
B|------10-----10------10-----10---10p9-7----|
G|-9s11------9-------7------9--------------9-|
D|-------------------------------------------|
A|-------------------------------------------|
E|-------------------------------------------|

               A                D
Here comes the sun, do do do do  
               B7              A
Here comes the sun, and I say   
A             
It's all right

Bridge:

     D       A       E      A       E        A
e|---------7------7-------7------7-----------|
B|------10-----10------10-----10---10p9-7----|
G|-9s11------9-------7------9--------------9-|
D|-------------------------------------------|
A|-------------------------------------------|
E|-------------------------------------------|

A             
It's all right

Ending:

     D       A       E      A       E        A
e|---------7------7-------7------7-----------|
B|------10-----10------10-----10---10p9-7----|
G|-9s11------9-------7------9--------------9-|
D|-------------------------------------------|
A|-------------------------------------------|
E|-------------------------------------------|

   C      G       D/F#  D    A    
e|---------------------------9---|
B|------8--------------------10--|
G|----9--------7------7------9---|
D|-10--------9------9--------7---|
A|--------10------9--------9-----|
E|----------------------10-------|

If you like the way the song is edited, help us grow with your like please


More songs of The Beatles:
While My Guitar Gently Weeps If I Fell Sexy Sadie Eleanor Rigby Bad to me I Want To Hold Your Hand I Feel Fine Hello, Goodbye Across The Universe Words of love
More songs from the category Familiar Songs:
Pink - Don't Let Me Get Me
Red Hot Chili Peppers - Otherside
Mr. Big - To Be With You
Johnny Cash - Ring Of Fire
U2 - In The Name Of Love