Hide Commercials
Did you know?
No 'did you know', Add an info for this song
Coldplay - Fix you Chords
Ranking: 5.86 Sign Up and Rank!

Coldplay - Fix you



Category: Rock
          Eb          
When you try your best
        Gm         Cm  Bb
but you don't succeed    
         Eb               
When you get what you want
    Gm             Cm Bb
but not what you need   
         Eb           
When you feel so tired
    Gm           Cm  Bb
but you can't sleep    
           Eb     Gm Cm Bb
Stuck in reverse          

        Eb                   Gm          Cm  Bb
And the tears come streaming down your face    
         Eb                 Gm         Cm  Bb
When you lose something you can't replace    
         Eb                  Gm         Cm  Bb
When you love someone but it goes to waste    
            Eb     Gm  Cm  Bb  Ab
Could it be worse?               

Ab    Ab/G  Bb            Ab  
Lights will guide     you home
   Ab/G Bb       Ab   
And  ignite your bones
      Ab/G  Bb4  Bb          Eb
And I will  try      to fix you

Bridge:
Eb Gm Cm Bb

    Eb               Gm         Cm Bb
And high up above or down below      
            Eb               Gm         Cm Bb
When you're too in love   to let it go       
           Eb       
But if you never try
       Gm         Cm Bb
you'll never know      
                 Eb    Gm Cm Bb Ab
Just what you're worth            

Ab    Ab/G  Bb            Ab  
Lights will guide     you home
   Ab/G Bb        Ab   
And  ignite  your bones
      Ab/G  Bb4  Bb          Eb
And I will  try      to fix you

Solo: x2

   Eb                                  Ab        
e|----------------------------------------------|
B|-4-4-4-4-4-4-4-4-4-4-s11-11-11-11-11-4-4-4-4-4|
G|----------------------------------------------|
D|----------------------------------------------|
A|----------------------------------------------|
E|----------------------------------------------|

                             Eb                      
e|--------------------------------------------------|
B|-4-4-4-4-4-s11-11-11-11-11-4-4-4-4-4-4-4-4-4-4-s11|
G|--------------------------------------------------|
D|--------------------------------------------------|
A|--------------------------------------------------|
E|--------------------------------------------------|

               Bb                            Cm      
e|--------------------------------------------------|
B|-11-11-11-11-4-4-4-3-3-3-3-3-3-3-3-3-3-3-3-4-4-4-4|
G|--------------------------------------------------|
D|--------------------------------------------------|
A|--------------------------------------------------|
E|--------------------------------------------------|

                               Ab           
e|-----------------------------------------|
B|-4-4-4-4-4-4-s11-11-11-11-11-4-4-4-4-4-4-|
G|-----------------------------------------|
D|-----------------------------------------|
A|-----------------------------------------|
E|-----------------------------------------|

                           Eb                 
e|-------------------------------------------|
B|-4-4-4-4-s11-11-11-11-11-4-4-4-4-4-4-4-4-4-|
G|-------------------------------------------|
D|-------------------------------------------|
A|-------------------------------------------|
E|-------------------------------------------|

                     Bb                            
e|------------------------------------------------|
B|-4-s11-11-11-11-11-4-4-4-3-3-3-3-3-3-3-3-3-3-3-3|
G|------------------------------------------------|
D|------------------------------------------------|
A|------------------------------------------------|
E|------------------------------------------------|

Eb            Ab                 Eb
Tears stream      down your face   
                        Bb                  Cm
when you lose something you  cannot replace   
              Ab                      Eb   Bb  Eb
Tears stream      down your face  and I          

Eb            Ab                 Eb
Tears stream      down your face   
                     Gm                     Cm
I promise you I will learn from my mistakes   
              Ab                      Eb   Bb  Ab
Tears stream      down your face  and I          

Ab    Ab/G  Bb            Ab  
Lights will guide     you home
   Ab/G Bb        Ab   
And  ignite  your bones
      Ab/G  Bb4  Bb          Eb
And I will  try      to fix you
If you like the way the song is edited, help us grow with your like please


More songs of Coldplay:
In My Place Princess Of China Trouble Clocks Speed Of Sound Paradise Magic Hymn For The Weekend Yellow Adventure Of A Lifetime
More songs from the category Rock:
Bruce Springsteen - The River
Coldplay - Speed Of Sound
Nirvana - In Bloom
Bryan Adams - Everything I Do I Do It For You
Asaf Avidan - Little parcels of an endless Time