Hide Commercials
Did you know?
No 'did you know', Add an info for this song
Shocking Blue - Venus Chords
Ranking: 6.06 Sign Up and Rank!

Shocking Blue - Venus

Author And Composer: Robbie van Leeuwen
Intro:
B4 B4 Em A Em A B4 B4 Em A Em A Em A Em A

Em             A        Em   A
Goddess on the mountain top   
Em             A       Em    A
Burning like a silver flame  
    Em           A       Em    A
The summit of beauty and love   
    Em            A    Em
And Venus was her name   

e|---------------|
B|---------------|
G|---------------|
D|---------------|
A|-----0-2-2-0---|
E|-0-3---------3-|

Chorus:

      Am      D  Am        D    
She's got it         yeah, baby,
      Em      A Em A
she's got it        
      C                 B4              
Well,   I'm your Venus,    I'm your fire
   Em          A Em A
at your desire       
      C                 B4              
Well,   I'm your Venus,    I'm your fire
   Em          A Em A
at your desire       

Solo:

   Em               A        Em        A  
e|-----15----14----12--------------------|
B|-/12----12----12-----------------------|
G|---------------------12b11-9---------9-|
D|--------------------------------9h11---|
A|---------------------------------------|
E|---------------------------------------|

    Em             A             Em 
e|-----15----14----12--------------|
B|-/12----12----12------12---------|
G|-------------------------12b11-9-|
D|---------------------------------|
A|---------------------------------|
E|---------------------------------|

        A        Em               A        Em       
e|-----------------------12----------------------12|
B|-------------------------------------------------|
G|------9--------9-11b13----13b11-9------9-11b13---|
D|-9-11-----9-11--------------------9-11-----------|
A|-------------------------------------------------|
E|-------------------------------------------------|

       A       Em      A            Em            
e|-----------------------------------------------|
B|-----------------------------------------------|
G|13b11-9-------9-------9------------------------|
D|---------9-11----9-11-----11-9-----------------|
A|-------------------------------11-----------7\-|
E|----------------------------------12----7-9----|

    Em                A      Em   A
Her weapons were her crystal eyes  
Em           A      Em   A
Making every man  a man   
Em           A          Em      A
Black as the dark night she was  
         Em          A    Em     
Got what no-one else had     wow!

Repeat Chorus

Bridge:

e|-----------------------------|
B|-----------------------------|
G|-----------------------------|
D|-7s9---7s9----7s9----7s9--9\-|
A|-7s9---7s9----7s9----7s9--9\-|
E|-5s7---5s7----5s7----5s7--7\-|

Em  A    Em  A     Em  A     Em  A
Ohhhh oh ohhhhh oh ohhhhh oh ohhhh
Em  A    Em  A     Em  A     Em   
Ohhhh oh ohhhhh oh ohhhhh oh ohhhh

Repeat Chorus

Em             A        G    A
Goddess on the mountain top   
Em             A       G     A
Burning like a silver flame   
    Em        A          G    A
The summit of beauty and love  
    Em            A    Em     
And Venus was her name    wow!

Repeat Chorus

Bridge:

e|--------------------------|
B|--------------------------|
G|--------------------------|
D|-7s9---7s9----7s9----7s9--|
A|-7s9---7s9----7s9----7s9--|
E|-5s7---5s7----5s7----5s7--|

Ending:
B4 B4 Em A Em A B4 B4 Em A Em A Em A Em A
If you like the way the song is edited, help us grow with your like please


More songs of Shocking Blue:
More songs from the category Rock:
Red Hot Chili Peppers - Dani California
The Beatles - Sexy Sadie
Coldplay - Speed Of Sound
Nirvana - Smells Like Teen Spirit
David Bowie - Starman