Hide Commercials
Did you know?
No 'did you know', Add an info for this song
Ray Charles - I Got A Woman Chords
Ranking: 5.8 Sign Up and Rank!

Ray Charles - I Got A Woman



               A7                E7  
well,  I got a woman    way over town
               A7  D7    A7  
that's good to me     oh yeah
            D7                     
Say I got a woman     way over town
        E7            
good to me     oh yeah
            A7                       
She give me money     when Im in need
             D7                      
Yeah she's a kind of    friend indeed
        A7               E7  
I got a woman   way over town
               A7  D7    A7   E7
that's good to me     oh yeah   

              A7                    E7     
She saves her lovin    early in the morning
         A7  D7     A7  
just for me      oh yeah
              D7                            
She saves her lovin     early in the morning
         E7          
just for me   oh yeah
              A7                  
She saves her lovin    just for me
       D7                    
oh she    love me so tenderly
        A7                E7  
I got a woman    way over town
               A7  D7     A7   E7
that's good to me      oh yeah   

Bridge with Saxophone:

         A7                                 
e|-------5--5----5--5------5-9--5-7-5------|
B|-5--7----------------7-5------------7-5--|
G|-----------------------------------------|
D|-----------------------------------------|
A|-----------------------------------------|
E|-----------------------------------------|

                                       E7        
e|-----5-8s9-5-5-8s9--5--8s9-5--8s9-5-7---5--4--|
B|-5-7------------------------------------------|
G|----------------------------------------------|
D|----------------------------------------------|
A|----------------------------------------------|
E|----------------------------------------------|

        A     A7      D7        Dm          
e|-5-7b8-7b8-~7-~7-5--8--5--7-5-10-10-8----|
B|--------------------------------------10-|
G|-----------------------------------------|
D|-----------------------------------------|
A|-----------------------------------------|
E|-----------------------------------------|

      A7           E7       A7                 
e|-5-8s9-5-8s9-5-8s9-5----5-5-----------------|
B|---------------------5------8-5-7-5-6-5-5---|
G|------------------------------------------7-|
D|--------------------------------------------|
A|--------------------------------------------|
E|--------------------------------------------|

           A  
e|-----------|
B|-----------|
G|---6--4--2-|
D|-----------|
A|-----------|
E|-----------|

A                      Bb A
She's there to love me     
                   Bb A
both day and night     
                         Bb A
Never grumbles or fusses     
                       Bb A
always treats me right     
                            Bb A
Never runnin in the streets     
                    Bb A
and leavin me alone     
                        Bb A
She knows a womans place    
A                             
is right there now in her home

        A7                E7  
I got a woman    way over town
               A7  D7    A7  
that's good to me     oh yeah
            D7                     
Say I got a woman     way over town
               E7          
that's good to me   oh yeah
            A7                              
Oh she's my baby    now don't you understand
         D7                 
Yeah and I'm   her lover man
        A7               E7  
I got a woman   way over town
               A7  D7    A7   E7
that's good to me     oh yeah   
                      A7     
A Don't ya know she's alright
                      A7     
A Don't ya know she's alright
                                  A7             
she's alright she's alright  Whoa yeah oh yeah oh
If you like the way the song is edited, help us grow with your like please


More songs of Ray Charles:
Unchain My Heart Hit The Road Jack
More songs from the category Familiar Songs:
Lionel Ritchie - Hello
Queen - I want It All
Stereo MC's - Step It Up
Peter Bjorn and John and Victoria Bergsman - Young Folks
U2 - Beautiful day