Hide Commercials
Did you know?
No 'did you know', Add an info for this song
Gipsy Kings - Volare Chords
Ranking: 5.86 Sign Up and Rank!

Gipsy Kings - Volare



Eadd9: 0241xx

First verse:

  Eadd9                   F#m                        
e|---0-----------------------2---2-----2----4—2h4p2-|
B|--0-----------------------2---------2----2--------|
G|-1---------1-------------2---------2----2---------|
D|---------4--------------4----4----3----2----------|
A|-------2------------------------------------------|
E|-----0--------------------------------------------|

   E                                      
e|---------------------------------------|
B|---------5-5p4--4----------------------|
G|-------4------6---6p4--4---------------|
D|-----6----------------7--7-6-4-------4-|
A|---7-------------------------------7---|
E|-0------------------------------0------|

  Abm                      C#m7  B7 
e|--4----------4—-2h4p2----4-----7-|
B|--4----------2--2--------5-----7-|
G|--4----------2--2--------6-----8-|
D|--6--------2-------------6-----9-|
A|--6------4---------------4-----9-|
E|--4----2-----------------------7-|

Eadd9                                   F#m
Pienso que un sueno parecido no volvera mas
                                    E  
Y me pintaba las manos lon cara de azul
                  Abm               F#m 
Y de improviso el viento rapido me llevo
          C#m7                B7   
Y me hizo volar   en cielo infinito

Chorus:

  F#m        B7
Volare    oh oh
   E              C#m
Cantare   oh oh oh oh
    F#m     B7        E 
Nel blu   dipinto di blu
  F#m       B7      E  
Felice   di stare lassu

    C#m                
Y volando volando feliz
      Abm                                   
Yo me encuentro mas alto mas alto que el sol
     Ab7                               C#m
Mientras el mundo se aleja despacio de ti 
    Am                            G  B7
Una musica dulce tocada solo para mi   

Repeat Chorus

Solo 1:

   E                                        
e|-----------------------------------------|
B|--------5-5-5-7-7-7-7----9-9-9---10p9h10-|
G|-----------------------------------------|
D|-----6-----------------------------------|
A|---7-------------------------------------|
E|-0---------------------------------------|

    E                                                                
e|-12p11----11-9-----9----------------------------------------------|
B|-------12-------10----12--9--12-10----10-9--9----9-----------9----|
G|-----------------------------------11---------11----8--9--11----9-|
D|------------------------------------------------------------------|
A|------------------------------------------------------------------|
E|------------------------------------------------------------------|

E                                       F#m
Pienso que un sueno parecido no volvera mas
B7                                  E  
Y me pintaba las manos lon cara de azul
                  Abm               F#m 
Y de improviso el viento rapido me llevo
           C#m               B7  
Y me hizo volar en cielo infinito

Repeat Chorus

Solo 2:

      C#m                        Abm        
e|-----------------------------------------|
B|---------------------7-------------------|
G|-6-8-9--6-8-9--6-8-9----9p8p6--8p6-------|
D|-----------------------------------9---9-|
A|-----------------------------------------|
E|-----------------------------------------|

        Ab7                       C#m           
e|---------------------------------------------|
B|------------------------10-9----9p7----------|
G|-9--9-11-8-9-11--8-9-11------11-------9p8----|
D|------------------------------------------11-|
A|---------------------------------------------|
E|---------------------------------------------|

       Am                       G          B7
E|------------------------------------------|
B|------------------------------------------|
G|-7-7-9p7-----7-9p7------4-5p4-5p4-5p4p2h4-|
D|---------10--------10---------------------|
A|------------------------------------------|
E|------------------------------------------|

Repeat Chorus

Pienso que un sueno....

Repeat Chorus

    F#m     B7        E 
Nel blu   dipinto di blu
  F#m       B7      E  
Felice   di stare lassu
x4

    F#m     B7        E 
Nel blu   dipinto di blu
If you like the way the song is edited, help us grow with your like please


More songs of Gipsy Kings:
Presidente Bamboleo Baila Me Amor Mio un amor
More songs from the category שירים עם סולו גיטרה:
אריק איינשטיין - כמה טוב שבאת הביתה
דיויד ברוזה - אמרי לי מי
אריאל הורוביץ - רנה
אסף אמדורסקי ותערובת אסקוט - החדר האינטימי שלי
מרסדס בנד - די