Hide Commercials
Did you know?
No 'did you know', Add an info for this song
Buena Vista Social Club - Chan Chan Chords
Ranking: 5.76 Sign Up and Rank!

Buena Vista Social Club - Chan Chan



Intro & during the song:

   Dm   F    Gm    A7   Dm    F          Gm    A7 
e|-5----1---------------5-----1--5---------------|
B|-6----1----5----------6-----1----6-----5-------|
G|-7----2-------7--6----7-----2------5-7----7--6-|
D|-----------------------------------------------|
A|-----------------------------------------------|
E|-----------------------------------------------|

          Dm    F         Gm    A7  
e|-5-------5----1-----5------------|
B|---8-6-5-6----1---6---6-5--------|
G|---------7----2------------7--6--|
D|---------------------------------|
A|---------------------------------|
E|---------------------------------|

   Dm         F              
De Alto Cedro voy para Marcan?
   Gm         A7              Dm F Gm A7
Llego a Cueto voy para Mayar?           
x3

Bridge:
Dm F Gm A7

Dm       F              Gm          A7      
El cario que te tengo   No te lo puedo negar
Dm         F            Gm          A7       
Se me sale la babita    Yo no lo puedo evitar

Repeat Bridge x2

Dm          F               Gm             A7      
Cuando Juanica y Chan Chan  En el mar cernian arena
Dm       F            Gm             A7       
Como sacuda el jibe   A Chan Chan le daba pena

Repeat Bridge x2

Dm            F            Gm            A7       
Limpia el camino de paja   Que yo me quiero sentar
Dm        F              Gm         A7       
En aquel tronco que veo  Y as no puedo llegar

Repeat Bridge x2

   Dm         F              
De Alto Cedro voy para Marcan?
   Gm         A7              Dm F Gm A7
Llego a Cueto voy para Mayar?           
x3
If you like the way the song is edited, help us grow with your like please


More songs of Buena Vista Social Club:
More songs from the category Exciting Song:
Scorpions - Wind Of Change
Gary Jules - Mad World
Carole King - Will You Love Me Tomorrow
John Lennon - Imagine
Sia - Breathe Me