Hide Commercials
Did you know?
No 'did you know', Add an info for this song
Guns N' Roses - November Rain Chords
Ranking: 6.18 Sign Up and Rank!

Guns N' Roses - November Rain



Intro:
E Abm/Eb C#m B E C#m B B4 B x2
E C#m B B4 B B9 x2

E                     C#m 
When I look into your eyes
                     B     B4 B B9    E
I can see a love restrained            
E                  C#m     
But darlin' when I hold you
                          B   B4 B B9  C#m
Don't you know I feel the same            
C#m             F#  
Nothin lasts forever
                            B       B4 B B9 C#m
And we both know hearts can change             
C#m                     F#    
And it's hard to hold a candle
                     B    B4 B B9 E
In the cold November rain          
      E                        C#m           
We've been through this such a long long time
                        B   B4 B B9 E
Just tryin' to kill the pain         
    E                                      
But lovers always come and lovers always go
    C#m            
And no one's really
                        B  B4 B B9 E
sure who's lettin' go today         
E           
Walking away
E                                              
If we could take the time to lay it on the line
        C#m         
I could rest my head
                           B   B4    B   B9  C#m
Just knowin' that you were mine  All mine       
   C#m            F#                  
So if you want to love me then darlin'
         B   B4 B B9  C#m
don't refrain            
                    F#     
Or I'll just end up walkin'
                     B   B4 B B9
In the cold November rain       

Chorus:

       E                         F# 
Do you need some time... on your own
       E                       F# 
Do you need some time... all alone
          E                           F# 
Everybody needs some time... on their own
                   E                      F#  Ebm
Don't you know you need some time... all alone   
Ebm         E               B          Ebm
I know it's hard to keep an open heart    
Ebm       E                   C#m      Ebm
When even friends seem out to harm you    
Ebm    E                 B          Ebm
But if you could heal a broken heart   
Ebm      E              F#       
Wouldn't time be out to charm you

Solo:

     E                 C#m              
e|-------------7-----------------7-----|
B|-8s9~---8s9~---9---8s9~---8s9~---9\--|
G|-------------------------------------|
D|-------------------------------------|
A|-------------------------------------|
E|-------------------------------------|

        B                        E                   
e|----------7------------------------------7--------|
B|-----------------------------8s9~---8s9~---9--7---|
G|--8h9p8-------9-8--6----6-----------------------9-|
D|---------------------9----9-----------------------|
A|--------------------------------------------------|
E|--------------------------------------------------|

    C#m                 B              B              
e|--------------7-9-7-9b11--7h9p7---7-12p11----12p11-|
B|--8s9~---8s9~-------------------9---------12-------|
G|---------------------------------------------------|
D|---------------------------------------------------|
A|---------------------------------------------------|
E|---------------------------------------------------|

            C#m                      F#  
e|----12h14-12------11-12---11h12-11----|
B|-12----------14--------------------14-|
G|--------------------------------------|
D|--------------------------------------|
A|--------------------------------------|
E|--------------------------------------|

                    B                                  
e|---11-12-14--12--11h12p11-----/19--18-18-18-16-16-16|
B|14--------------------------------------------------|
G|----------------------------------------------------|
D|----------------------------------------------------|
A|----------------------------------------------------|
E|----------------------------------------------------|

                                      C#m  
e|-14-14--12-12-12--11~--11h12p11-----12--|
B|--------------------------------14------|
G|----------------------------------------|
D|----------------------------------------|
A|----------------------------------------|
E|----------------------------------------|

                  F#                           B         
e|-11h12p11---------------------------------------------|
B|----------14h16p14------------12~-----------14b16---14|
G|------------------------------------------------------|
D|------------------------14-13-------14-13-------------|
A|------------------------------------------------------|
E|------------------------------------------------------|

Repeat Chorus

Solo 2

E                      C#m 
And when your fears subside
                    B   B4 B B9 E
And shadows still remain         
E                   C#m    
I know that you can love me
                            B   B4 B B9 C#m
When there's no one left to blame          
C#m               F#      
So never mind the darkness
                    B   B4 B B9 C#m
We still can find a way            
C#m                     F#                      B   
'Cause nothin' lasts forever Even cold November rain

Bridge:
B B/Bb Abm F# E F# x2

Outro: x4

    B   F#      E         D          G               A  Bm
e|-/19--18--19-21--19-18-19----------15----14h15-12h14---|
B|--------------------------19----19---------------------|
G|-----------------------------19------------------------|
D|-------------------------------------------------------|
A|-------------------------------------------------------|
E|-------------------------------------------------------|
If you like the way the song is edited, help us grow with your like please


More songs of Guns N' Roses:
Don't Cry Sweet Child O' Mine Patience Knocking On Heaven's Door
More songs from the category Rock:
U2 - In The Name Of Love
Bryan Adams - The Only Thing That Looks Good On Me Is You
Led Zeppelin - Communication Breakdown
Neil Young - Rockin' In The Free World
Red Hot Chili Peppers - Right On Time