Hide Commercials
Did you know?
No 'did you know', Add an info for this song
Lionel Ritchie - Hello Chords
Ranking: 6.08 Sign Up and Rank!

Lionel Ritchie - Hello



Intro:
Am G6 Fmaj7 G6 Fmaj7 x2

  Am                 G6            Fmaj7  G6 Fmaj7
I've been alone with you inside my mind           
    Am                G6              
And in my dreams I've kissed your lips
  Fmaj7           G6   Fmaj7
a thousand times            
  Am                G6  
I sometimes see you pass
           Fmaj7  G6  Fmaj7
outside my door            

   Am  G6        Fmaj7             A   
Hello,     is it me you're looking for?
      Dm             G    
I can see it in your eyes,
      C               F   
I can see it in your smile
       Bb            E     
You're all I've ever wanted
       Am       E7/B Am/C  E7/B
and my arms are open wide      
           Dm                G  
'Cause you know just what to say
        C                 F 
and you know just what to do
      Bb               Am/E  E    
And I want to tell you so    much,
       Am    G6
I love you     

Bridge:
Fmaj7 G6 Fmaj7 Am G6 Fmaj7 G6 Fmaj7

  Am              G6               Fmaj7  G6 Fmaj7
I long to see the sunlight in your hair           
    Am                G6         
And tell you time and time again,
    Fmaj7        G6   Fmaj7
how much I care            
    Am              G6             Fmaj7  G6 Fmaj7
Sometimes I feel my heart will overflow           

  Am   G6            Fmaj7            A 
Hello,     I've just got to let you know
         Dm               G         C               F 
'Cause I wonder where you are and I wonder what you do
        Bb                E     
Are you somewhere feeling lonely
      Am      E7/B   Am/C  E7/B
or is someone loving you?      
        Dm              G           C             F   
Tell me how to win your heart for I haven't got a clue
    Bb              Am/E  E           Am    G6
But let me start by say - ing, I love you     

Repeat Bridge

Solo:

       Am                      G6              
E|---|-------------0--1-----0-----------------|
B|---|----0--1--3--------3-----1/3--0-----1p0-|
G|---|-2--------------------------------------|
D|-2-|----------------------------------------|
A|---|----------------------------------------|
E|---|----------------------------------------|

   Fmaj7        G6  Fmaj7    
E|---------------------5----|
B|----3/5--3------3/5-----5-|
G|-2------------------------|
D|--------------------------|
A|--------------------------|
E|--------------------------|

   Am          G6                  
E|-7--8--5--7-----5---------------|
B|-------------8-----5---3/5--3/5-|
G|-----------------------2/4--2/4-|
D|--------------------------------|
A|--------------------------------|
E|--------------------------------|

   Fmaj7           G6        Fmaj7 
E|--------------------3---------8-|
B|-3/5/3---------3/5-----3--------|
G|-3/4/2--5---5-------------------|
D|--------------------------------|
A|--------------------------------|
E|--------------------------------|

    Am               G6                  
E|--10/12--13--12----8/10--12--10---8p7-|
B|--------------------------------------|
G|--------------------------------------|
D|--------------------------------------|
A|--------------------------------------|
E|--------------------------------------|

   Fmaj7               G6  Fmaj7    
E|-8p7------------------------5----|
B|------10--10/8/10------3/5-----5-|
G|---------------------------------|
D|---------------------------------|
A|---------------------------------|
E|---------------------------------|

   Am  G6        Fmaj7             A   
Hello,     is it me you're looking for?
         Dm    
'Cause I wonder
          G           C               F 
where you are   and I wonder what you do
        Bb                E     
Are you somewhere feeling lonely
      Am      E7/B   Am/C  E7/B
or is someone loving you?      
        Dm              G    
Tell me how to win your heart
      C             F   
for I haven't got a clue
    Bb              Am/E  E           Am    G6
But let me start by say - ing, I love you     

Outro:
Fmaj7 G F A
If you like the way the song is edited, help us grow with your like please


More songs of Lionel Ritchie:
All Night Long
More songs from the category Pop:
Ricky Martin - She Bangs
Jack Johnson - News
Desree - You Gotta Be
ABBA - The winner takes it all
Kinks - You Really Got Me