Hide Commercials
Did you know?
No 'did you know', Add an info for this song
U2 - One Chords
Ranking: 5.96 Sign Up and Rank!

U2 - One



Intro: x2

e|-------------------------------|
B|-------------------------------|
G|----------9--7--9--7--9--7-----|
D|-5h7-----10-10-10-10-10-10-----|
A|-----0----------------------5--|
E|-------------------------------|

e|-----------------------------------------|
B|-----------------------------------------|
G|-7--5--7--5--7--5-------9--7--9--7--9--9-|
D|-7--5--7--5--7--5-------7--7--7--7--7--7-|
A|--------------------8--------------------|
E|-----------------------------------------|

e|-----------------------------|
B|-----------------------------|
G|-----------------------------|
D|-----10--9--10--9--10--9--10-|
A|-10--10----------------------|
E|-----------------------------|

 Am            Dadd9
Is it getting better
Fmaj7              G   
Or do you feel the same
Am              Dadd9        
Will it make it easier on you
Fmaj7                  G    
Now you got someone to blame

        C          Am
You say   One love   
Am       Fmaj7                   C
One life       When it's one need 
C           
In the night
C              Am
It's one love    
Am                 Fmaj7
We get to share it      
Fmaj7             
It leaves you baby
       C                
If you don't care for it

Bridge:
Am Dadd9 Fmaj7 G

 Am        Dadd9     Fmaj7
Did I disappoint you      
Fmaj7                        G     Am
Or leave a bad taste in your mouth   
Am                     Dadd9    Fmaj7
You act like you never had love      
Fmaj7                      G 
And you want me to go without
          C           Am         Fmaj7
Well it's   too late     Tonight      
Fmaj7                C
To drag the past out  
   C           
In to the light
C        
We're one
          Am          
But we're not the same
         Fmaj7               
We get to    carry each other
  C                    
Carry each other    One

Bridge:
C Am Fmaj7 C

Am                         Dadd9   
Have you come here for for giveness
Fmaj7                       G   
Have you come to raise the  dead
Am                         Dadd9 
Have you come here to play  Jesus
Fmaj7                  G   
To the lepers in your  head

      C            Am
Did I ask too much   
Am              Fmaj7
More than a lot      
Fmaj7              
You gave me nothing
          C         
Now it's   all I got
      C  
We're one
          Am          
But we're not the same
   Fmaj7          
We hurt each other
         C          
Then we  do it again

        C                  Am
You say   Love is a temple   
Am                C
Love a higher law  
C               
Love is a temple
Am                 
Love the higher law

C                  
You ask me to enter
G                         
But then you make me crawl
                        Fmaj7
And I can't be holding  on   
Fmaj7          
To what you got
                     C   
When all you got is  hurt

C        Am           Fmaj7
One love    One blood      
Fmaj7    C
One life  
C                            
You got to do what you should

C        Am                 
One life     With each other
Fmaj7    C          
Sisters     Brothers
C        Am
One life   
Am                    
But we're not the same
Fmaj7                     
We get to carry each other
  C             
Carry each other
Am  Dadd9  Fmaj7  G
One        One.    

Outro: x3

e|-12-12-------------------|-12-12-13-13-12-------|
B|-------15-15-13-13-15----|----------------15-13-|
G|-------------------------|----------------------|
D|-------------------------|----------------------|
A|-------------------------|----------------------|
E|-------------------------|----------------------|
If you like the way the song is edited, help us grow with your like please


More songs of U2:
Where The Streets Have No Name With or without you Beautiful day I Still Haven't Found What I'm Looking For Every Breaking Wave Sunday Bloody Sunday In The Name Of Love Ordinary Love The Sweetest Thing
More songs from the category Rock:
Katy Perry and Skip Marley - Chained To The Rhythm
Nirvana - Pennyroyal Tea
Mark Ronson and Daniel Merriweather - Stop Me
The Beatles - Something
Useless ID - Turn up the stereo