Hide Commercials
Did you know?
No 'did you know', Add an info for this song
Pink floyd - Wish You Were Here Chords
Ranking: 5.84 Sign Up and Rank!

Pink floyd - Wish You Were Here



Videos:






Guitar1: x2 (at the second time the other guitar play)

e|-----------3-3-3----------3-3-3--|
B|-----------3-3-3----------3-3-3--|
G|-----------0-0-0--0-------0-0-0--|
D|------0-2--2-2-2----2-0---0-0-0--|
A|--0h2----------------------------|
E|---------------------------------|

e|------------3-3-3------------3-3-3-|
B|------------3-3-3------------3-3-3-|
G|------------0-0-0----0-------0-0-0-|
D|-------0-2--2-2-2--2---2-0---0-0-0-|
A|---0h2-----------------------------|
E|-3---------------------------------|

e|------------3-3-3-----------3-3---3-|
B|------------3-3-3-----------3-3---3-|
G|------------0-0-0-----------0-0---0-|
D|-------0-2--2-2-2--2-0------0-0---0-|
A|---0h2-----------------2-0------0---|
E|-3----------------------------------|

e|----------3-3-3-----------3-3---3-|
B|----------3-3-3-----------3-3---3-|
G|----------0-0-0-----------0-0---0-|
D|-----0-2--2-2-2--2-0------0-0---0-|
A|-0h2-----------------2-0------0---|
E|----------------------------------|

e|-------3-3-3-3-3-3--|
B|-------3-3-3-3-3-3--|
G|-------0-0-0-0-0-0--|
D|-----0-0-0-0-0-0-0--|
A|-0h2---0-0-0-0-0-0--|
E|-------3-3-3-3-3-3--|

Guitar 2:

e|--------------------------------------|
B|-------3----5---3---------------------|
G|-2s3s4--------4-----4p2p0-------------|
D|--------------------------0------0-0--|
A|-----------------------------1s2------|
E|--------------------------------------|

e|-3s5s3--------------------------|
B|-3s5s3-3s5s3-----3s5--5s3-------|
G|-------2s4s2--0--2s4--4s2p0-0---|
D|--------------------------------|
A|--------------------------------|
E|--------------------------------|

e|------------------------------------------|
B|-----3---5---6b5p3---3----------3-5-------|
G|-2s4---4-----------4---2----4b6-----4b6-2-|
D|------------------------------------------|
A|------------------------------------------|
E|------------------------------------------|

                                       G  C
e|----------------------------------------|
B|-----3---5--5b6-6b5p3--5----------------|
G|-2s4---4------------------2--4b5b4-2----|
D|----------------------------------------|
A|----------------------------------------|
E|----------------------------------------|

C                        D/F#
So, so you think you can tell
            Am                   
Heaven from Hell, blue skies from
G                          D/F# 
pain, can you tell a green field
                  C             
from a cold steel rain?  A smile
      Am                         G    
from veil?  Do you think you can tell?
                     C   
Did they get you to trade
               D/F#                   Am   
your hero's for ghosts, hot ashes for trees
              G   
Hot air for a cool
                         D/F#  
breeze, cold comfort for change
          C                     
did you exchange, a walk-on part
       Am                        G    
in the war, for a lead role in a cage?

Bridge (with guitar 1 doing Intro):

e|-------------------------------10s12-10-|
B|-10s12-12-12---10s12-12--12-------------|
G|----------------------------------------|
D|----------------------------------------|
A|----------------------------------------|
E|----------------------------------------|

e|----------------------------------------------|
B|-10s12-12--12--10s12-12-12--12p10-------------|
G|------------------------------------12-12-----|
D|------------------------------------------12--|
A|----------------------------------------------|
E|----------------------------------------------|

e|---------------10-10-----10-10--------------|
B|---------10s12--------12---------12p10------|
G|----9b10-------------------------------12p9-|
D|--9-----------------------------------------|
A|--------------------------------------------|
E|--------------------------------------------|

e|-------12---7s9-9-9-9\---------10-10--|
B|-10s12-------------------10s12--------|
G|--------------------------------------|
D|--------------------------------------|
A|--------------------------------------|
E|--------------------------------------|

                      G     C 
e|-------12-12---------------|
B|-10s12--------12p10--------|
G|---------------------------|
D|---------------------------|
A|---------------------------|
E|---------------------------|

C                               D/F# 
How I wish, how I wish you were here.
          Am                                     G
Were just two lost soles swimming in a fish bowl, 
G
year after year.
D/F#                              C
Running over the same old ground,  
C
but have we found the same old
Am                      G   
fears?   Wish you were here.

Repeat Intro (guitar 1 only)  x2
If you like the way the song is edited, help us grow with your like please


More songs of Pink floyd:
Breathe Is There Anybody Out There Brain Damage Mother Green Is The Colour If Comfortably numb learning to fly
More songs from the category Rock:
Nickelback - How You Remind Me
Queen - Love Of My Life
Kings Of Leon - Wait For Me
Bryan Adams - The Only Thing That Looks Good On Me Is You
Guns N' Roses - Knocking On Heaven's Door