Hide Commercials
Did you know?
No 'did you know', Add an info for this song
Oasis - Don't Look Back in Anger Chords
Ranking: 6.06 Sign Up and Rank!

Oasis - Don't Look Back in Anger



Intro:

   C     F        C       
e|-------------------------------------------|
B|-1---1---1---1----1---1---1--------1-1---1-|
G|-0---0---0---0----2---2---2------0---0---0-|
D|-2---2---2---2----3---3---3--2h3-----2---2-|
A|---3---3---3---3----3---3--------------3---|
E|-------------------------------------------|

   F                                  
e|-----------------------------------|
B|---1---1---1--1---1----------------|
G|---0---0---2--0h2-0------0-------0-|
D|---2---2---3---------0h2---0h2p0---|
A|-3---3---3-------------------------|
E|-----------------------------------|

C               G            Am 
Slip inside the eye of your mind
          E                F 
Don't you know you might find
G                     C      Am G
A better place to play        
C             G            Am 
You said that you'd never been
            E                   F    G
But all the things that you've seen   
G            C     Am G   F
Slowly fade away           

F            Fm           C  
So I start a revolution from my bed

e||-----------------------------||
B||-----------------------------||
G||----5---5--------------------||
D||----5h7-5-------5------------||
A||------------5s7-----7s5--3---||
E||-----------------------------||

        F                 Fm            C    
Cos you said the brains I had went to my head

e||----------------------||
B||----------------------||
G||-----------5-5-----5--||
D||-----------5-5-----5--||
A||---------------5h7----||
E||----------------------||

F                 Fm              C    
Step outside, the summertime's in bloom

e||------------------8-8---||
B||------------------8-8---||
G||--------------8h9-------||
D||------------------------||
A||------------------------||
E||------------------------||

G                            
Stand up beside the fireplace
Abdim                            
Take that look from off your face
    Am             G             F               G       
Cos you ain't ever gonna burn my heart ouuuuuuuuuuuuuuuut

  G                            
e||--------------------------||
B||----------------5---------||
G||--5---5--7--7b9---7p5--7--||
D||--5h7-5-------------------||
A||--------------------------||
E||--------------------------||

Chorus:

C  G         Am        E              F   
So Sally can wait, she knows it's too late
          G          C   Am G
as she's walking on by       
    C    G        Am  E                F             G
Her soul slides away,   but don't look back in anger  
             C 
I heard you say

   G  Am  E                  F    G            C    Am       G
e||---------------------------------------------------------||
B||-----------------------------------8---------------------||
G||-----------5-7-7b9r7--5---5----7s9----b8r7--5--------5h7-||
D||-------5h7--------------7------------------------5h7-----||
A||---------------------------------------------------------||
E||---------------------------------------------------------||

C  G               Am
Take me to the place where you go 
      E       F  G                    F    Am G
Where nobody knows,         if it's night or day      
 C        G           Am   
Please don't put your life in the hands
     E            F     G             C     F
of a rock and roll band,     who'll throw it all away    

F             Fm                 C  
Gonna start a revolution from my bed
F    Fm             C             F       
Cos you said the brains I had went to my head      Step
      Fm       C    
outside, the summertime's in bloom
G                            
Stand up beside the fireplace
Abdim                           
Take that look from of your face
    Am              G             F            G     
Cos you ain't never gonna burn my heart oooooouuuuuuuuut

    G                                                             
e||-----------------------------------------5-------------------||
B||-------------------------------------------------------------||
G||--------5---7--5--7b9r7--5-----5--7--7b9----7--5--7--5--7--5-||
D||---5h7----------------------7--------------------------------||
A||-------------------------------------------------------------||
E||-------------------------------------------------------------||

Repeat Chorus

Solo:

        F     Fm        C                                
e||----------------------------------------------8-----------||
B||----------------------------------------------8-----------||
G||----5--7b8r7-7b8r7-7b8r7--5-----------5---8h9----5-----5--||
D||--7--------------------------5---5h7----------------7-----||
A||----------------------------------------------------------||
E||----------------------------------------------------------||

        F           Fm        C                        F                     
e|--------------------------------------------------------------------------|
B|--------------------------------------------------------------------------|
G|-7-5--7b8r7-7b8r7-7b8r7--5-----5---5--------------------------------------|
D|----------------------------5--5h7-5------5--------------------------5--7-|
A|--------------------------------------5h7---7p5-3----------3--5--5s7------|
E|-----------------------------------------------------1--5-----------------|

  Fm     C                       G                      
e|--------------------------------------8--8--8h10--8-------8------8------8-|
B|----------------------------8--8--10-----------------8h10---8h10---8h10---|
G|-5--5--7b9--7--5-----5---s9-----------------------------------------------|
D|------------------7-------------------------------------------------------|
A|--------------------------------------------------------------------------|
E|--------------------------------------------------------------------------|

          Abdim       Am                         
e|------8------8--8h10p8------8------8------8-------12----12----12----12-----|
B|-8h10---8h10-----------8h10---8h10---8h10---8h10--15b17-15b17-15b17-15b17--|
G|---------------------------------------------------------------------------|
D|---------------------------------------------------------------------------|
A|---------------------------------------------------------------------------|
E|---------------------------------------------------------------------------|

  G            F                                  
e|-12----12-----------------------------------17---------------------|
B|-15b17-15b17--15b17r15--13----13--15--15b17---b17r15--15-17-15-17--|
G|---------------------------14--------------------------------------|
D|-------------------------------------------------------------------|
A|-------------------------------------------------------------------|
E|-------------------------------------------------------------------|

   G                                                                      
e|--------12-12-------12-12-------12-12-------12-12-------12-12--12------|
B|--15b17-------15b17-------15b17-------15b17-------15b17--------15b17---|
G|-----------------------------------------------------------------------|
D|-----------------------------------------------------------------------|
A|-----------------------------------------------------------------------|
E|-----------------------------------------------------------------------|

Repeat Chorus

C   G     Am      E       F     G          C   
So  Sally can wait, she knows it's too late as we're walking on by
    C    G        Am
Her soul slides away
               F            
But don't look back in anger
           Fm           
Don't look back in anger
     C      G       Am        E
I heard you say                

e|--------------------------------------------------------------|
B|--------------------------------------------------------------|
G|---------------5-7--7b9r7--5-----5--7--5--7b9---7--5---5h7--5-|
D|----------5h7-----------------7-------------------------------|
A|-----5h7------------------------------------------------------|
E|--------------------------------------------------------------|

Bridge:
F Fm

Fm     C  
least not today

e|--------------------------0-|
B|--------------------------1-|
G|--------------------------0-|
D|--7--5------------5-------2-|
A|--------3-5-5s7---------7s3-|
E|----------------------------|

If you like the way the song is edited, help us grow with your like please


More songs of Oasis:
The Masterplan Wonderwall Don't Go Away Go Let It Out Live Forever Columbia Some Might Say
More songs from the category Rock:
Imagine Dragons - Demons
Asaf Avidan - Her Lies
R.E.M. - Stand
Bananarama - Venus
3 Doors Down - Here Without You