Hide Commercials
Did you know?
No 'did you know', Add an info for this song
Cold Comfort - Blues Chords
Ranking: 5.86 Sign Up and Rank!

Cold Comfort - Blues



Category: Blues
E|--------------------------|--------------------------|
B|-------7--5---------------|-------7--5---------------|
G|-------6--4---------------|-------6--4---------------|
D|-------7--5-------------2-|-------7--5-------------2-|
A|-0--0--------0--0--3h-4---|-0--0--------0--0--3h-4---|
E|--------------------------|--------------------------|

E|--------------------------|--------------------------|
B|-------7--5---------------|-------7--5---------------|
G|-------6--4---------------|-------6--4---------------|
D|-------7--5-------------2-|-------7--5-------------2-|
A|-0--0--------0--0--3h-4---|-0--0--------0--0--3h-4---|
E|--------------------------|--------------------------|

E|-------7--5---------------|-------7--5---------------|
B|-------7--5---------------|-------7--5---------------|
G|-------7--5-------------2-|-------7--5-------------2-|
D|-0--0--------0--0--3h-4---|-0--0--------0--0--3h-4---|
A|--------------------------|--------------------------|
E|--------------------------|--------------------------|

E|--------------------------|--------------------------|
B|-------7--5---------------|-------7--5---------------|
G|-------6--4---------------|-------6--4---------------|
D|-------7--5-------------2-|-------7--5-------------2-|
A|-0--0--------0--0--3h-4---|-0--0--------0--0--3h-4---|
E|--------------------------|--------------------------|

E|-------9--7---------------|-------7--5---------------|
B|-------9--7---------------|-------7--5---------------|
G|-------9--7---------------|-------7--5-------------2-|
D|--------------------------|-0--0--------0--0--3h-4---|
A|------------------------2-|--------------------------|
E|-0--0--------0--0--3h-4---|--------------------------|

E|----------------------------------|-------------------------|
B|----------------------------------|-------------------------|
G|----------2--------2--------2-----|-------------------------|
D|-------5-----5--4-----4--3-----3--|--2--0--1--2-------------|
A|-0--0-----------------------------|-------------------------|
E|----------------------------------|--------------0--0--0--0-|

E|----------------------------|-----------------------------|
B|-------7--5-----------------|--------7--5-----------------|
G|-------6--4-----------------|--------6--4-----------------|
D|-------7--5--------------2--|--------7--5--------------2--|
A|-0--0--------0--0--3h-4-----|--0--0--------0--0--3h-4-----|
E|----------------------------|-----------------------------|

E|----------------------------|-----------------------------|
B|-------7--5-----------------|--------7--5-----------------|
G|-------6--4-----------------|--------6--4-----------------|
D|-------7--5--------------2--|--------7--5--------------2--|
A|-0--0--------0--0--3h-4-----|--0--0--------0--0--3h-4-----|
E|----------------------------|-----------------------------|

E|-------7--5-----------------|--------7--5-----------------|
B|-------7--5-----------------|--------7--5-----------------|
G|-------7--5--------------2--|--------7--5--------------2--|
D|-0--0--------0--0--3h-4-----|--0--0--------0--0--3h-4-----|
A|----------------------------|-----------------------------|
E|----------------------------|-----------------------------|

E|----------------------------|-----------------------------|
B|-------7--5-----------------|--------7--5-----------------|
G|-------6--4-----------------|--------6--4-----------------|
D|-------7--5--------------2--|--------7--5--------------2--|
A|-0--0--------0--0--3h-4-----|--0--0--------0--0--3h-4-----|
E|----------------------------|-----------------------------|

E|-------9--7-----------------|--------7--5-----------------|
B|-------9--7-----------------|--------7--5-----------------|
G|-------9--7-----------------|--------7--5--------------2--|
D|----------------------------|--0--0--------0--0--3h-4-----|
A|-------------------------2--|-----------------------------|
E|-0--0--------0--0--3h-4-----|-----------------------------|

E|-------------------------|-----0--2--3----|
B|-------5-----4-----3-----|--2--------2----|
G|-------6-----5-----4-----|--2--------2----|
D|-------5-----4-----3-----|--2--------2----|
A|-0--0--------------------|-----------0----|
E|----------0-----0-----0--|----------------|
If you like the way the song is edited, help us grow with your like please


More songs of Cold Comfort:
More songs from the category Blues:
The Commitments - Mustang Sally
The Beatles - Revolution
Rolling Stones - Midnight Rambler
Ray Charles - Unchain My Heart
Ray Charles - I Got A Woman