Hide Commercials
Did you know?
No 'did you know', Add an info for this song
Red Hot Chili Peppers - Around the World Chords
Ranking: 5.96 Sign Up and Rank!

Red Hot Chili Peppers - Around the World



Category: Rock | Familiar Songs
Intro: x4

e|-----------------|--|---------------------------------|
B|-----------------|--|---------------------------------|
G|-----------------|--|---------------------------------|
D|-----------------|--|---------------------------------|
A|-----------------|x4|-5-7-7-5-7-7-5-7-7-5-7-5---------|
E|-0~---0--0--0--0-|--|-------------------------7-6-5-3-|

e|--------------------------------|
B|--------------------------------|
G|--------------------------------|
D|--------------------------------|
A|--5-7-7-5-7-7-5-7-7-5-----------|
E|----------------------7-6-5-3-0-|

hey......

Continue intro & verses: x2

e||----------------------------||
B||----------------------------||
G||----------------------------||
D||---3-5-3-5-3-5------3-5-3-5-||
A||-5----------------5---------||
E||----------------------------||

G                    F                 
All around the world We could make time
G                                 F          
Rompin' and a stompin' 'Cause I'm in my prime
G                      F                   G
Born in the north And sworn to entertain ya 
G                        F                   
'Cause I'm down for The state of Pennsylvania
   G                  F              G
I try not to whine But I must warn ya 
G         F                     
'Bout the girls From California 
G                F          G
Alabama baby Said hallelujah 
G                              Ab
Good god girl I wish I knew ya   

Chorus:

Ab       Gm            Fm                         Cm               Ab
I know I know for sure     That life is beautiful around the world   
Ab       Gm           Fm                          Cm      
I know I know it's you   You say hello and then I say I do

Bridge:

e||----------------------------||
B||----------------------------||
G||----------------------------||
D||---3-5-3-5-3-5------3-5-3-5-||
A||-5----------------5---------||
E||----------------------------||

G                         F          
Come back baby 'Cause I'd like to say
     G                           F         
I've been around the world Back from Bombay
G                 F           
Fox hole love Pie in your face
G                      F               
Living in and out Of a big fat suitcase
G                   F               G
Bonafide ride Step aside my Johnson  
G                  F                 
Yes I could In the woods of Wisconsin
G                       F                      G
Wake up the cake It's a lake she's kissin' me   
G                                      Ab
As they do when When they do in Sicily   

Repeat Chorus

Repeat intro

G                      F                 
Where you want to go   Who you want to be
G                          F           
What you want to do   Just come with me
G               F                 
I saw God  And I saw the fountains
G                         F                     
You and me girl   Sittin' in the Swiss mountains
G            F           
Me Oh My O   Me and Guy O
G                               F             G
Freer than a bird  'Cause we're rockin' Ohio   
G                F               G
Around the world   I feel dutiful 
G                                    Ab
Take a wife 'Cause life is beautiful   

Ab       Gm           Fm                                    Cm              Ab
I know I know for sure   ding ding dong dong ding ding dong dong ding ding    
Ab       Gm           Fm                                    Cm             Ab
I know I know it's you   ding ding dong dong ding ding dong dong ding ding   
Ab                     Gm                             
Mother Russia do not suffer  I know you're bold enough
     Fm                                Cm              Ab
I've been around the world  And I have seen your love    
Ab       Gm           Fm                          Eb      
I know I know it's you   You say hello and then I say I do

Outro:
Dm Em Fm x3
If you like the way the song is edited, help us grow with your like please


More songs of Red Hot Chili Peppers:
This Velvet Glove Higher Ground Can't Stop Porcelain Emit Remmus Savior Parallel Universe Brendan's Death Song Universally Speaking Otherside
More songs from the category Rock:
Oasis - Wonderwall
U2 - The Sweetest Thing
U2 - Beautiful day
Kings Of Leon - Supersoaker
Nirvana - Rape Me