Hide Commercials
Did you know?
No 'did you know', Add an info for this song
Lenny kravitz - Again Chords
Ranking: 6.02 Sign Up and Rank!

Lenny kravitz - Again



Category: Rock | Familiar Songs
During Intro & Chorus:

  A           F#m       E           D           
E|--------------------|------------------------|
B|------------5-------|------------10--10h12p10|
G|------------6h7p6---|------11--------11------|
D|----7----6--------7-|---11----11-------------|
A|--7---7-------------|-9----------------------|
E|5-------------------|------------------------|

E|--------------------|-----------------5-|
B|----------9---------|----------7------7-|
G|-----9----9h11p9----|-----7----7h9p7--7-|
D|---9---9--9---------|---7---7--7------7-|
A|-7---------------7--|-5---------------5-|
E|--------------------|-------------------|

Verse:

   D5     E5  F#5       
E|---------------------|
B|------------11--11---|
G|-7~-----9---11--11---|
D|-7~-----9---11--11---|
A|-5~-----7---9---9----|
E|---------------------|

D5                   E5  F#5
I've been searching for you 
D5                    E5  F#5
I heard a cry within my soul 
   D5                              E5   F#5  
I never had a yearning quite like this before
                   D5             [E5 ]     F#5
Now that you are walking right through my door  

Chorus:

A         F#m 
All of my life
F#m            E   
Where have you been
E            D                 A   
I wonder if I'll ever see you again
A               F#m  
And if that day comes
F#m             E  
I know we could win
E            D                     
I wonder if I'll ever see you again

A sacred gift of heaven
For better worse wherever
And I would never let somebody break you down
Or take your crown, never

Repeat Chorus

I've searched through time, I've always known
That you where there, upon your throne
A lonely queen, without her king
I've longer for you, my love forever

Solo:

E|-------------------------12b14r12-10-9-10-9-|
B|----12b14-14-14r12~~--10--------------------|
G|-9------------------------------------------|
D|--------------------------------------------|
A|--------------------------------------------|
E|--------------------------------------------|

E|--------------------9-10-12-14p12--17b19r17--|
B|12-10tr12---9-10-12--------------------------|
G|---------------------------------------------|
D|---------------------------------------------|
A|---------------------------------------------|
E|---------------------------------------------|

E|19b21-21-21r19-17---21-22-21h22p21-17--------|
B|---------------------------------------------|
G|---------------------------------------------|
D|----------------------------------------7tr9\|
A|---------------------------------------------|
E|---------------------------------------------|
If you like the way the song is edited, help us grow with your like please


More songs of Lenny kravitz:
Believe Fly Away believe in me
More songs from the category Rock:
The Clash - Should I Stay Or Should I Go
Queen - Under Pressure
Coldplay - Adventure Of A Lifetime
Prince - Purple Rain
R.E.M. - Supernatural Superserious