Hide Commercials
Did you know?
No 'did you know', Add an info for this song
Pearl Jam - Alive Chords
Ranking: 6 Sign Up and Rank!

Pearl Jam - Alive



Category: Rock | Guitar solo
Intro:
A A/G A A/G A F C

A A/G        A                                    A/G
Son, she said, have I got a little story for you     
                          A                         
What you thought was your daddy was nothin' but a...
A/G                    A                         A/G
While you were sittin' home alone at age thirteen   
                    A    
Your real daddy was dyin'
                 F      C            F          C
sorry you didn't see him, but I'm glad we talked 

Chorus:

   E  G   D          A   
Oh I, oh, I'm still alive
     E   G   D          A   
Hey, I,  oh, I'm still alive
    E  G   D          A   
Hey I, oh, I'm still alive
      B     A
Hey...oh...  

A/G                  A                           A/G
Oh, she walks slowly, across a young man's room     
             A              
She said I'm ready...for you
A/G               A                          A/G
I  can't remember anything to this very day     
               A           
'Cept the look, the look...
F                    C    F          C         E      
Oh, you know where, now I can't see, I just stare...  

E  G  D          A   
I, I, I'm still alive
    E  G    D            A 
Hey I, but, I'm still alive
    E  G    D          A   
Hey I, boy, I'm still alive
    E  G   D          A          B Eb F#
Hey I, oh, I'm still alive, yeah        
         B Eb F#               B Eb F#
Ooh yeah...     yeah yeah yeah...     
F#           B Eb F#
oh...oh...          

A A9 A4                        A   A9 A4
Is something wrong, she said            
               A       A9 A4
Well of course there is     
                    A       A9 A4
You're still alive, she said     
                        B B9 B4
Oh, and do I deserve to be     
                B B9 B4
Is that the question   
            B B9  B4      
And if so...      if so...
             B B9 B4             B B9 B4
who answers...     who answers...       

E  G   D          A   
I, oh, I'm still alive
    E  G   D          A   
Hey I, oh, I'm still alive
    E  G    D          A   
Hey I, but, I'm still alive
     E  G               D   A
Yeah I, ooh, I'm still alive 
                         E   
Yeah yeah yeah yeah yeah yeah

Solo:

   E                     G                 D          
e|-12p10---------------------------------------------|
B|-------12--12b10-8-----8---8-8-10-8---8-10b12-10b12|
G|-------------------9-----9----------9--------------|
D|---------------------------------------------------|
A|---------------------------------------------------|
E|---------------------------------------------------|

   E                      G                 D           
e|-12p10-----------------------------------------------|
B|-------12--12b10-8------8---8-8-10-8---8-10b12-10b12-|
G|-------------------9------9----------9---------------|
D|-----------------------------------------------------|
A|-----------------------------------------------------|
E|-----------------------------------------------------|

                A          E                  
e|------------------------------12----12-12--|
B|-10b12b10p8h10-8--10h12-12-12----12--------|
G|-------------------------------------------|
D|-------------------------------------------|
A|-------------------------------------------|
E|-------------------------------------------|

                 G                       D                 A   
e|-10p7-------------------------------------------------------|
B|------8h10---10s12---10p8-10-10-8-10-8----------------------|
G|----------------------------------------9-7-----------------|
D|--------------------------------------------9-8-7----7---7b8|
A|--------------------------------------------------10--10----|
E|------------------------------------------------------------|
If you like the way the song is edited, help us grow with your like please


More songs of Pearl Jam:
Yellow Ledbetter Jeremy Last Kiss Black Why Go Once
More songs from the category Rock:
Kings Of Leon - Wait For Me
Eddie Vedder - Society
Bob Dylan - Mr. Tambourine Man
Adele - Rumour Has It
The Beatles - I Want To Hold Your Hand