Hide Commercials
Did you know?
No 'did you know', Add an info for this song
Metallica - Nothing Else Matters Chords
Ranking: 5.84 Sign Up and Rank!

Metallica - Nothing Else Matters



Videos:



Intro:

E|-------0-----|-------0-----|-------0-----|
B|-----0---0---|-----0---0---|-----0---0---|
G|---0-------0-|---0-------0-|---0-------0-|
D|-------------|-------------|-------------|
A|-------------|-------------|-------------|
E|-0-----------|-0-----------|-0-----------|

E|-------0---7-|-7-----7p0-----|------7--8--|
B|-----0---0---|---0-------0---|------0--0--|
G|---0---------|----0-------0--|---0--------|
D|-------------|---------------|------------|
A|-------------|---------------|------------|
E|-0-----------|-0-------------|-0----------|

E|7h8p5--7-5\---|-------2p0------------0---0---0-|
B|-------0----5-|-5---5-----5--------5-----5---5-|
G|--------------|---5---------5----5-------5---5-|
D|--------------|--------------------------------|
A|--------------|-0--------------0---------0---2-|
E|--------------|--------------------------------|

E|-0-----------3p0-----0-0-|---------0h5p0--------|
B|-5-------5-------5---5s7-|-----7---------7p0-0h5|
G|-5-----5---5-------5-5s7-|---7---7--------------|
D|-------------------------|----------------------|
A|-3---3---------------3s5-|-5--------------------|
E|-------------------------|----------------------|

E|-------12----|-------0-----|-------0-----|
B|-----12--0---|-----0---0---|-----0---0---|
G|---12------0-|---0-------0-|---0-------0-|
D|-------------|-------------|-------------|
A|-------------|-------------|-------------|
E|-0-----------|-0-----------|-0-----------|

E|-------0-----|----------7-|-------------|
B|-----0---0---|----------8-|-----7-----5-|
G|---0-------0-|--------9---|-----7-----5-|
D|-------------|------9-----|---7-----5---|
A|-------------|----7-------|-5-----3-----|
E|-0-----------|-0----------|-------------|

E|----------7--|-------------|-----------7---|
B|----------8--|-----7-----5-|-----------8---|
G|--------9----|-----7-----5-|-------9-------|
D|------9------|---7-----5---|---------9-----|
A|----7--------|-5-----3-----|-----7---------|
E|-0-----------|-------------|-0-------------|

E|-----5-----------3-----|-----3-----------2-----|
B|-------7-----------5---|-------3-----------4---|
G|---------7-----------5-|---------4-----------2-|
D|-----7-----------5-----|-----5-----------4-----|
A|-5-----------3---------|-------------2---------|
E|-----------------------|-3---------------------|

E|-------0-----|-------0-----|
B|-----0---0---|-----0---0---|
G|---0-------0-|---0-------0-|
D|-------------|-------------|
A|-------------|-------------|
E|-0-----------|-0-----------|

Guitar 2:

E|-------------3-----0-----|-2-----3-----0-----------|
B|---------0-----------0---|---------3-------3-------|
G|-----0-----------0-----0-|-----------0-------0-----|
D|-------------------------|-0-----------------------|
A|-------------------------|-------------3-----------|
E|-0-----------------------|---------------------3-2-|

E|-------------3-----0-----|-2-----------------------|
B|---------0-----------0---|-------3-----3-----------|
G|-----0-----------0-----0-|---------2^0-----0-------|
D|-------------------------|-0--0--------------------|
A|-------------------------|-------------3-----------|
E|-0-----------------------|---------------------3-2-|

E|-------------3-----0-----|-2-----3-----3-----------|
B|---------0-----------0---|---------3-------3-------|
G|-----0-----------0-----0-|-----------0---------0---|
D|-------------------------|-0--0--------------------|
A|-------------------------|-------------3-----------|
E|-0-----------------------|-------------------------|

E|-------3---2-----2---|-0-----0-----|---------0--------|
B|-------3---0-------0-|-----0---0---|------0-----0-----|
G|----0------2---------|---0-------0-|---0--------------|
D|---------------------|-------------|------------------|
A|-----------2---2-----|-------------|------------------|
E|-3-------------------|-0-----------|-0-------------3-2|

Em                 D       C   Em
So close no matter how far       
 Em                    D          C  Em
Couldn't be much more from the heart   
 Em               D       C   G
Forever trusting who we are    
 G  B7            Em    
And nothing else matters

 Em             D           C   Em
Never opened my self this way     
 Em                      D      C  Em
Life is ours, we live it our way     
 Em                     D       C  G
All these words I don't just say    
 G  B7            Em    
And nothing else matters

 Em              D         C  Em
Trust I seek and find in you    
 Em              D           C  Em
Every day for us something new    
 Em             D             C  G
Open mind for a different view    
G   B7           Em       C A D
And nothing else matters      

Chorus:

D                         C  A D
Never cared for what they do    
                          C    A  D
Never cared for what they know     
      Em  
But I know

 Em                D      C   Em
So close no matter how far      
 Em                    D          C  Em
Couldn't be much more from the heart   
 Em               D       C   G
Forever trusting who we are    
 G  B7            Em       C A D
And nothing else matters

D                         C  A D
Never cared for what they do    
                          C    A  D
Never cared for what they know     
      Em  
But I know

Guitar1:

e|-12------14---|-15-------17---|-8------8------|
B|---12------12-|---12-------12-|---5------5----|
G|--------------|---------------|-----5------5--|
D|--------------|---------------|---------------|
A|--------------|---------------|---------------|
E|--------------|---------------|---------------|

e|-------8-------|-0--------0---|-0--------0----|
B|----5-----5----|----1-------1-|----3-------3--|
G|-5----------5\-|-------2------|-------2-------|
D|---------------|--------------|---------------|
A|---------------|--------------|---------------|
E|---------------|--------------|---------------|

e|-0--7--7-0-----|--------0------|-12------14---|
B|-12--0---12-0--|------0--------|---12------12-|
G|------0-------0|----0----------|--------------|
D|---------------|---------------|--------------|
A|---------------|---------------|--------------|
E|---------------|-0-------------|--------------|

e|-15-------17---|-8------8------|-------8-------|
B|---12-------12-|---5------5----|----5-----5----|
G|---------------|-----5------5--|-5----------5\-|
D|---------------|---------------|---------------|
A|---------------|---------------|---------------|
E|---------------|---------------|---------------|

e|-0------0----|-0------0----|-0-7----7-0----|-------0------|
B|---1------1--|---3------3--|----0-------0--|-----0---0----|
G|-----2-------|-----2-------|-------0------0|---0----------|
D|-------------|-------------|---------------|--------------|
A|-------------|-------------|---------------|--------------|
E|-------------|-------------|---------------|-0---------3-2|

Guitar2:

e|-15------17---|-19-------20---|-12------------|
B|---17------17-|---17-------17-|---13----------|
G|--------------|---------------|---------------|
D|--------------|---------------|---------------|
A|--------------|---------------|---------------|
E|--------------|---------------|---------------|

e|-12-----------|12/14----------|----12-12------|
B|----13--------|----15---------|---------------|
G|-------12-----|-------14------|---------------|
D|--------------|---------------|---------------|
A|--------------|---------------|---------------|
E|--------------|---------------|---------------|

e|-15------17---|-19-------20---|-12--------|
B|---17------17-|---17-------17-|---13------|
G|--------------|---------------|-----------|
D|--------------|---------------|-----------|
A|--------------|---------------|-----------|
E|--------------|---------------|-----------|

 Em             D           C   Em
Never opened my self this way     
 Em                      D      C  Em
Life is ours, we live it our way     
 Em                     D       C  G
All these words I don't just say    
 G  B             Em    
And nothing else matters

 Em              D         C  Em
Trust I seek and find in you    
 Em              D           C  Em
Every day for us something new    
 Em             D             C  G
Open mind for a different view    
 G  B           Em       C A D
And nothing else matters      

Bridge:
C A D

D                         C    A  D
Never cared for what they say      
D                          C   A  D
Never cared for what they play     
D                         C  A  D
Never cared for what they do     
D                          C    A D
Never cared for what they know     
      Em  
But I know

Solo:

   Em                                
E|----------------------------------|
B|-15------15-----------------------|
G|-14b16---14b16b14-~12---12-14p12--|
D|----------------------------------|
A|----------------------------------|
E|----------------------------------|

   D                   C              
E|-----------------------------------|
B|-----------------------------------|
G|-11h12p11----11-----------12-14-12-|
D|----------14----12-~14-------------|
A|-----------------------------------|
E|-----------------------------------|

   Em                                   
E|-------12-------12-------------------|
G|----12-------12----15p12----12-------|
G|-14b16----14b16----------15----15p14-|
D|-------------------------------------|
A|-------------------------------------|
E|-------------------------------------|

   D                   C    Em                   
E|-----------------------|-14s15-14----15-14-17-|
B|-------14----14s13-----|----------12----------|
G|-12----14----14s13-~12-|----------------------|
D|----14-----------------|----------------------|
A|-----------------------|----------------------|
E|-----------------------|----------------------|

    D                      C              
E|-15--14h15p14----15p14-|---------------|
B|--------------12-------|-12------------|
G|-----------------------|------12-14-12-|
D|-----------------------|---------------|
A|-----------------------|---------------|
E|-----------------------|---------------|

   G                    B                  Em   
E|--------------------|-12---------------------|
B|-12--------------12-|-----15b17b15p12-15b17--|
G|-14b16-----12-14b16-|------------------------|
D|--------14----------|------------------------|
A|--------------------|------------------------|
E|--------------------|------------------------|

   Em                  
E|------------|-------|
B|-12h15p12s7-|-5h7p5-|
G|------------|-------|
D|------------|-------|
A|------------|-------|
E|------------|-------|

Em                 D       C   Em
So close no matter how far       
 Em                    D          C  Em
Couldn't be much more from the heart   
 Em              D          C  G
Forever trusting who we are     
 G  B7           Em     
And nothing else matters

Ending: x3

E|-------0-----------0----7-7-----7p0-----|
B|-----0---0-------0---0------0-------0---|
G|---0-------0---0--------------0-------0-|
D|----------------------------------------|
A|----------------------------------------|
E|-0-----------0------------0-------------|

E|------7-8-7h8p5-|-7-5\-----|
B|------0-0-0---0-|-0-0--5-5-|
G|---0------------|----------|
D|----------------|----------|
A|----------------|----------|
E|-0--------------|--------0-|
If you like the way the song is edited, help us grow with your like please


More songs of Metallica:
The Memory Remains Battery One Fade To Black Enter Sandman Sad But True Turn the Page
More songs from the category Rock:
INXS - By My Side
Journey - Don't Stop Believin'
Nirvana - Pennyroyal Tea
Scorpions - Send Me An Angel
The Beatles - If I Fell