Hide Commercials
Did you know?
No 'did you know', Add an info for this song
Arr.h.wallaco - Malaguena Chords
Ranking: 5.9 Sign Up and Rank!

Arr.h.wallaco - Malaguena



Category: Flamenco
Videos:



e|-0--0-0-0-0-0--0-0-0-0-0--0-0-0-0-0--0-0-0-0-0-|
B|-0--0-0-0-0-0--0-0-0-0-0--0-0-0-0-0--0-0-0-0-0-|
G|-1--1-1-1-1-1--1-1-1-1-2--2-2-2-2-2--2-2-2-2-4-|
D|-2--2-2-2-2-2--2-2-2-2-3--3-3-3-3-3--3-3-3-3-5-|
A|-2--2-2-2-2-2--2-2-2-2-3--3-3-3-3-3--3-3-3-3-5-|
E|-0--0-0-0-0-0--0-0-0-0-0--0-0-0-0-0--0-0-0-0-0-|

e|-0-0-0-0-0--0-0-0-0-0--0-0-0-0-0-|
B|-0-0-0-0-0--0-0-0-0-0--0-0-0-0-0-|
G|-4-4-4-4-2--2-2-2-2-1--1-1-1-1-1-|
D|-5-5-5-5-3--3-3-3-3-2--2-2-2-2-2-|
A|-5-5-5-5-3--3-3-3-3-2--2-2-2-2-2-|
E|-0-0-0-0-0--0-0-0-0-0--0-0-0-0-0-|

e|----0---0---0---0---0---0---0---0---0---0---0---0--|
B|----------0-----------0-------1---0----------------|
G|.-----1-----------1-------2-----------2---0-------.|
D|.-2-----------2-------------------------------3---.|
A|---------------------------------------------------|
E|---------------------------------------------------|

e|----000---000---000---000---000---000-|
B|--------------0-----------------0-----|
G|.-------1-----------------1-----------|
D|.-2-----------------2-----------------|
A|--------------------------------------|
E|--------------------------------------|

e|---000---000---000---000---000---000-|
B|-------1-----0-----------------------|
G|-2-----------------2-----0----------.|
D|-------------------------------3----.|
A|-------------------------------------|
E|-------------------------------------|

e|--0--0-1-0h1p0------0--0-1-0h1p0-------|
B|--0-------------0---0--------------0---|
G|.-1-----------------1------------------|
D|.-2-----------------2------------------|
A|--2-----------------2------------------|
E|--0-----------------0------------------|

e|-0--0-1-0h1p0-----0--0-1-0h1p0-----|
B|-1----------------1----------------|
G|-2-------------2--2-------------2-.|
D|-2----------------2---------------.|
A|-0----------------0----------------|
E|-----------------------------------|

e|--0--0------------0--0------------0--0------------0--0------------|
B|--0----0-------0--0----0-------0--1----1-------1--1----1-------1--|
G|.-1------1---1----1------1---1----2------2---2----2------2---2---.|
D|.-2--------2------2--------2------2--------2------2--------2-----.|
A|--2---------------2---------------0---------------0---------------|
E|--0---------------0-----------------------------------------------|

e|---0---0---0---0---0---0---0----0---0---0---0---1--|
B|---0---0---0---0---0---0---1----1---1---1---0---1--|
G|.--1---1---1---1---1---1---2----2---2---2---0---2-.|
D|.-------------------------------------------------.|
A|---------2-----------2---0----3---2---0------------|
E|-0---4-------0---4------------------------3---1----|

e|-0-------------------------------------------------|
B|-0----0--1--3---1-0---3--1--0---1---0------1--0----|
G|-1----------1---1-1---1--1--1---2---2--2---2--2--2-|
D|-2----------2---2-2---2--2--2---3---3--3---3--3--3-|
A|-2-------------------------------------------------|
E|-0----------0---------0---------0----------0-------|

e|------------------------------0---|
B|-------0-1-0-3-1-0---------0------|
G|---0-2-------------2-0-----1------|
D|-3---------------------3-2--------|
A|----------------------------------|
E|-0-----------0-----------0------0-|

e|-0-------------------------------------------------|
B|-0----0--1--3---1-0---3--1--0---1---0------1--0----|
G|-1----------1---1-1---1--1--1---2---2--2---2--2--2-|
D|-2----------2---2-2---2--2--2---3---3--3---3--3--3-|
A|-2-------------------------------------------------|
E|-0----------0---------0---------0----------0-------|

e|------------------|--0--0-1-3-1-0----------0-----------------------|
B|----------0--1--3-|--0----------0--0-3-1-0-1--------0-1-0-3-1-0----|
G|----0--2----------|.-1----------1----------2--2-1-2-------------2-.|
D|-3--------------0-|.-2----------2----------3----------------------.|
A|-------0--2--3----|--2----------2----------------------------------|
E|-1--3-------------|--0----------0----------------------------------|

e|--------------------------------------------------|
B|--------------------------------------------------|
G|.------------------------------------------------.|
D|.--2---2---2---2---2---2---2---2---2---2---2---2-.|
A|---------2-----------2---0---3---2---0------------|
E|-0---4-------0---4-----------------------3---1----|

e|-------------------------------------------------------------------------|
B|-------------------------------------------------------------------------|
G|.-----------------------------------------------------------------------.|
D|.-222---222---222---222---222---222---222---222---222---222---222---222-.|
A|------------2-----------------2-----0-----3-----2-----0------------------|
E|0-----4-----------0-----4-----------------------------------3-----1------|

e|---------------------------------------------------------------------|
B|--------1-3p1p0----------0-1p0-------------0-------------------------|
G|.-----2---------2------0-------2p0-------2---2p0----------1---------.|
D|.---2----------------0-----------------3---------3------2---2p0-----.|
A|--0----------------------------------3----------------2---------3p2--|
E|-------------------3---------------1----------------0----------------|

e|--------------------------------------------------------------------------|
B|--111---111---111---000---000---000---------------------------------------|
G|.-----------2-----------------0--------222---222---222---111---111---111-.|
D|.-----2-----------------0------------------------3-----------------2-----.|
A|-0-----------------------------------------3-----------------2------------|
E|------------------3------------------1-----------------0------------------|

e|--0--0---0------0--0---0------0--0---0------0--0---0------|
B|--0----0-----0--0----0-----0--0----0-----0--0----0-----0--|
G|.-1--------1----1--------1----2--------2----2--------2---.|
D|.-2-------------2-------------3-------------3------------.|
A|--2-------------2-------------3-------------3-------------|
E|--0-------------0-------------0-------------0-------------|

e|--0--0------------0--0------------0--0------------0--0------------|
B|--0----0-------0--0----0-------0--0----0-------0--0----0-------0--|
G|.-1------1---1----1------1---1----2------2---2----2------2---2---.|
D|.-2--------2------2--------2------3--------3------3--------3-----.|
A|--2---------------2---------------3---------------3---------------|
E|--0---------------0---------------0---------------0---------------|

e|----0---0---0---0---0---0---0----0---0---0---0---1--|
B|----0---0---0---0---0---0---1----1---1---1---0---1--|
G|.---1---1---1---1---1---1---2----2---2---2---0---2-.|
D|.--------------------------------------------------.|
A|----------2-----------2---0----3---2---0------------|
E|--0---4-------0---4------------------------3---1----|

e|-----0----0-----0----0-----0-----0-----0-----0----0----0----0-----1-|
B|----0----0-----0----0-----0-----0-----1-----1----1----1----0-----1--|
G|.--1----1-----1----1-----1-----1-----2-----2----2----2----0-----2--.|
D|.------------------------------------------------------------------.|
A|------------2----------------2-----0-----3----2----0----------------|
E|--0----4----------0----4---------------------------------3-----1----|

e|-0---0h1p0-----------------------------------0-0-0-0-0-|
B|-0---------0h1p0-----------------------------0-0-0-0-0-|
G|-1---------------1h2p1-----------------------1-1-1-1-1-|
D|-2---------------------2h3p2-----------------2-2-2-2-2-|
A|-2---------------------------2h3p2-----------2-2-2-2-2-|
E|-0---------------------------------4h5p4-0---0-0-0-0-0-|
If you like the way the song is edited, help us grow with your like please


More songs of Arr.h.wallaco:
More songs from the category Flamenco:
Buena Vista Social Club - Chan Chan
Gipsy Kings - Bamboleo
Gipsy Kings - Volare
Arr.h.wallaco - Malaguena
Gipsy Kings - Baila Me