Hide Commercials
Did you know?
No 'did you know', Add an info for this song
The Beatles - Let It Be Chords
Ranking: 5.9 Sign Up and Rank!

The Beatles - Let It Be



Category: Pop | Familiar Songs
Videos:












F6: 131231

intro:
C G Am F F6 C G F C

       C              G               
When I find myself in times of trouble
Am          F        F6
Mother Mary comes to me
 C                G              F  C
Speaking words of wisdom, let it be  
    C             G       
And in my hour of darkness
        Am                F        F6
She is standing right in front of me 
 C                G              F   C
Speaking words of wisdom, Let it be   

Chorus:

       Am         G          F          C 
Let it be, let it be, let it be, let it be
C                 G             F  C
Whisper words of wisdom, let it be  

    C               G             
And when the broken hearted people
Am            F        F6
Living in the world agree
C                G              F  C
There will be an answer, let it be  
    C                  G     
But though they may be parted
          Am                  F        F6
There is still a chance that they may see
C                G              F   C
There will be an answer, let it be   

       Am         G          F          C 
Let it be, let it be, let it be, let it be
C                 G             F  C
Whisper words of wisdom, let it be  
       Am         G          F          C 
Let it be, let it be, let it be, let it be
C                 G             F  C
Whisper words of wisdom, let it be  

Bridge:

    F      C      G   F  C  
e||-----------------------||
B||-----------------------||
G||-----------------------||
D||-3--2-0----------------||
A||--------3--1-0-------3-||
E||---------------3--1----||

Solo:

       C             G          Am      
e|-------------------------------------|
B|-------------------------------------|
G|-------------------------------------|
D|-----------------------------------5-|
A|-----3--3-5b7b5-3--5-5-----3s5-5s7---|
E|-3h5-------------------3h5-----------|

           F   C                G               
e|-----------------------------------5s3-------|
B|------------------------------5--8-----5p3---|
G|----------------------------5--------------5-|
D|-7p5-------------5-5---5--7------------------|
A|-----7p5-3---5s7-----7-----------------------|
E|---------------------------------------------|

   F              C                     G            
e|--------------------------------------------------|
B|---------------------------------------5----------|
G|--7p5-------------------------------------7-5-7---|
D|------7-5------------------------5s7-5----------7-|
A|------------7p5--3---------5s7--------------------|
E|----------------------3h5-------------------------|

    F                   C          Am           
e|-----------------------------------8---------|
B|---------8--10p8----------------------10p8---|
G|-----7s9----------9p7-5--------5s9---------9-|
D|5h7------------------------5h7---------------|
A|---------------------------------------------|
E|---------------------------------------------|

      F          C             G          
e|-10b11-10-~8---------------------------|
B|--------------10-8----10p8-------------|
G|--------------------9-------9p7--5h7-5-|
D|---------------------------------------|
A|---------------------------------------|
E|---------------------------------------|

       Am         G          F          C 
Let it be, let it be, let it be, let it be
C                 G             F  C
Whisper words of wisdom, let it be  

    C                  G    
And when the night is cloudy
         Am                  F        F6
There is still a light that shines on me
C               G              F   C
Shine on till tomorrow, let it be   
  C              G             
I wake up to the sound of music
Am                    F  F6
Mother Mary comes to me    
 C                G              F   C
Speaking words of wisdom, let it be   

       Am         G          F          C 
Let it be, let it be, let it be, let it be
C                 G             F  C
Whisper words of wisdom, let it be  
       Am         G          F          C 
Let it be, let it be, let it be, let it be
C                 G             F  C
Whisper words of wisdom, let it be  

Ending:

    F      C      G   F  C  
e||-----------------------||
B||-----------------------||
G||-----------------------||
D||-3--2-0----------------||
A||--------3--1-0-------3-||
E||---------------3--1----||
If you like the way the song is edited, help us grow with your like please


More songs of The Beatles:
Baby It's You Twist And Shout Dear prudence Birthday Across The Universe With a Little Help from My Friends She Loves You Words of love We Can Work It Out Anna (Go To Him)
More songs from the category Pop:
Desree - You Gotta Be
Jack Johnson - Sexy Plexi
Nadav Guedj - Jump
Rod Stewart - Sailing
The Beatles - Eleanor Rigby